  0
SECTION
  2
HEADER
  9
$ACADVER
  1
AC1009
  9
$INSBASE
 10
0.0
 20
0.0
 30
0.0
  9
$EXTMIN
 10
12.95278390635235
 20
9.9970857766065802
 30
-0.0000000000112498
  9
$EXTMAX
 10
289.46121995692403
 20
201.1236168934752
 30
0.0000000000002956
  9
$LIMMIN
 10
12.95699999999508
 20
10.0
  9
$LIMMAX
 10
289.45700000038528
 20
201.1206999999936
  9
$ORTHOMODE
 70
     0
  9
$REGENMODE
 70
     1
  9
$FILLMODE
 70
     1
  9
$QTEXTMODE
 70
     0
  9
$MIRRTEXT
 70
     1
  9
$DRAGMODE
 70
     2
  9
$LTSCALE
 40
5.0
  9
$OSMODE
 70
    39
  9
$ATTMODE
 70
     1
  9
$TEXTSIZE
 40
3.0
  9
$TRACEWID
 40
0.05
  9
$TEXTSTYLE
  7
STANDARD
  9
$CLAYER
  8
0
  9
$CELTYPE
  6
BYLAYER
  9
$CECOLOR
 62
   256
  9
$DIMSCALE
 40
1.0
  9
$DIMASZ
 40
2.5
  9
$DIMEXO
 40
1.0
  9
$DIMDLI
 40
7.0
  9
$DIMRND
 40
0.0
  9
$DIMDLE
 40
0.0
  9
$DIMEXE
 40
1.0
  9
$DIMTP
 40
0.1
  9
$DIMTM
 40
0.1
  9
$DIMTXT
 40
3.0
  9
$DIMCEN
 40
0.0
  9
$DIMTSZ
 40
0.0
  9
$DIMTOL
 70
     0
  9
$DIMLIM
 70
     0
  9
$DIMTIH
 70
     0
  9
$DIMTOH
 70
     0
  9
$DIMSE1
 70
     0
  9
$DIMSE2
 70
     0
  9
$DIMTAD
 70
     3
  9
$DIMZIN
 70
     8
  9
$DIMBLK
  1
OPEN30
  9
$DIMASO
 70
     1
  9
$DIMSHO
 70
     1
  9
$DIMPOST
  1

  9
$DIMAPOST
  1
"
  9
$DIMALT
 70
     0
  9
$DIMALTD
 70
     2
  9
$DIMALTF
 40
0.0393701
  9
$DIMLFAC
 40
1.0
  9
$DIMTOFL
 70
     1
  9
$DIMTVP
 40
0.0
  9
$DIMTIX
 70
     0
  9
$DIMSOXD
 70
     0
  9
$DIMSAH
 70
     0
  9
$DIMBLK1
  1

  9
$DIMBLK2
  1

  9
$DIMSTYLE
  2
AM_JIS
  9
$DIMCLRD
 70
     7
  9
$DIMCLRE
 70
     7
  9
$DIMCLRT
 70
     7
  9
$DIMTFAC
 40
0.71
  9
$DIMGAP
 40
1.0
  9
$LUNITS
 70
     2
  9
$LUPREC
 70
     4
  9
$SKETCHINC
 40
0.1
  9
$FILLETRAD
 40
0.0
  9
$AUNITS
 70
     0
  9
$AUPREC
 70
     0
  9
$MENU
  1
acad
  9
$ELEVATION
 40
0.0
  9
$PELEVATION
 40
0.0
  9
$THICKNESS
 40
0.0
  9
$LIMCHECK
 70
     0
  9
$BLIPMODE
 70
     0
  9
$CHAMFERA
 40
0.0
  9
$CHAMFERB
 40
0.0
  9
$SKPOLY
 70
     0
  9
$TDCREATE
 40
2455755.6568701151
  9
$TDUPDATE
 40
2457465.5973636578
  9
$TDINDWG
 40
0.1511095833
  9
$TDUSRTIMER
 40
0.1511093981
  9
$USRTIMER
 70
     1
  9
$ANGBASE
 50
0.0
  9
$ANGDIR
 70
     0
  9
$PDMODE
 70
     0
  9
$PDSIZE
 40
0.0
  9
$PLINEWID
 40
0.0
  9
$COORDS
 70
     1
  9
$SPLFRAME
 70
     0
  9
$SPLINETYPE
 70
     6
  9
$SPLINESEGS
 70
     8
  9
$ATTDIA
 70
     1
  9
$ATTREQ
 70
     1
  9
$HANDLING
 70
     1
  9
$HANDSEED
  5
2EDD
  9
$SURFTAB1
 70
     6
  9
$SURFTAB2
 70
     6
  9
$SURFTYPE
 70
     6
  9
$SURFU
 70
     6
  9
$SURFV
 70
     6
  9
$UCSNAME
  2

  9
$UCSORG
 10
0.0
 20
0.0
 30
0.0
  9
$UCSXDIR
 10
1.0
 20
0.0
 30
0.0
  9
$UCSYDIR
 10
0.0
 20
1.0
 30
0.0
  9
$PUCSNAME
  2

  9
$PUCSORG
 10
0.0
 20
0.0
 30
0.0
  9
$PUCSXDIR
 10
1.0
 20
0.0
 30
0.0
  9
$PUCSYDIR
 10
0.0
 20
1.0
 30
0.0
  9
$USERI1
 70
     0
  9
$USERI2
 70
     0
  9
$USERI3
 70
     0
  9
$USERI4
 70
     0
  9
$USERI5
 70
     0
  9
$USERR1
 40
0.0
  9
$USERR2
 40
0.0
  9
$USERR3
 40
0.0
  9
$USERR4
 40
0.0
  9
$USERR5
 40
0.0
  9
$WORLDVIEW
 70
     1
  9
$SHADEDGE
 70
     3
  9
$SHADEDIF
 70
    70
  9
$TILEMODE
 70
     1
  9
$MAXACTVP
 70
    16
  9
$PLIMCHECK
 70
     0
  9
$PEXTMIN
 10
1.0000000000000000E+020
 20
1.0000000000000000E+020
 30
1.0000000000000000E+020
  9
$PEXTMAX
 10
-1.0000000000000000E+020
 20
-1.0000000000000000E+020
 30
-1.0000000000000000E+020
  9
$PLIMMIN
 10
-20.0
 20
-7.5
  9
$PLIMMAX
 10
277.0
 20
202.5
  9
$UNITMODE
 70
     0
  9
$VISRETAIN
 70
     0
  9
$PLINEGEN
 70
     1
  9
$PSLTSCALE
 70
     0
  0
ENDSEC
  0
SECTION
  2
TABLES
  0
TABLE
  2
VPORT
 70
     1
  0
VPORT
  2
*ACTIVE
 70
     0
 10
0.0
 20
0.0
 11
1.0
 21
1.0
 12
151.2070019316381
 22
105.56035133504091
 13
0.0
 23
0.0
 14
2.5
 24
2.5
 15
10.0
 25
10.0
 16
0.0
 26
0.0
 36
1.0
 17
0.0
 27
0.0
 37
0.0
 40
192.75313989233129
 41
2.1803977272727271
 42
50.0
 43
0.0
 44
0.0
 50
0.0
 51
0.0
 71
    16
 72
   100
 73
     1
 74
     3
 75
     0
 76
     0
 77
     0
 78
     1
  0
ENDTAB
  0
TABLE
  2
LTYPE
 70
    23
  0
LTYPE
  2
CONTINUOUS
 70
     0
  3
Solid line (NEC CAE2D for Win R7.2 : 2008.02.20
 72
    65
 73
     0
 40
0.0
  0
LTYPE
  2
HIDDEN
 70
     0
  3
Hidden __ __ __ __ __ __ __ __ __ __ __ __ __ _
 72
    65
 73
     2
 40
0.375
 49
0.25
 49
-0.125
  0
LTYPE
  2
PHANTOM2
 70
     0
  3
Phantom (.5x) ___ _ _ ___ _ _ ___ _ _ ___ _ _
 72
    65
 73
     6
 40
1.25
 49
0.625
 49
-0.125
 49
0.125
 49
-0.125
 49
0.125
 49
-0.125
  0
LTYPE
  2
CENTER
 70
     0
  3
Center ____ _ ____ _ ____ _ ____ _ ____ _ ____
 72
    65
 73
     4
 40
2.0
 49
1.25
 49
-0.25
 49
0.25
 49
-0.25
  0
LTYPE
  2
CENTER2
 70
     0
  3
Center (.5x) ___ _ ___ _ ___ _ ___ _ ___ _ ___
 72
    65
 73
     4
 40
1.125
 49
0.75
 49
-0.125
 49
0.125
 49
-0.125
  0
LTYPE
  2
HIDDEN2
 70
     0
  3
Hidden (.5x) _ _ _ _ _ _ _ _ _ _ _ _ _ _ _ _ _
 72
    65
 73
     2
 40
0.1875
 49
0.125
 49
-0.0625
  0
LTYPE
  2
ACANSTGB
 70
     0
  3
__ . . __ . .
 72
    65
 73
     6
 40
0.35433070866
 49
0.15748031496
 49
-0.03937007874
 49
0.03937007874
 49
-0.03937007874
 49
0.03937007874
 49
-0.03937007874
  0
LTYPE
  2
ACANSTGL
 70
     0
  3
_ _ _ _ _
 72
    65
 73
     2
 40
0.11811023622
 49
0.07874015748
 49
-0.03937007874
  0
LTYPE
  2
ACJISWELD
 70
     0
  3
_ _ _ _ _
 72
    65
 73
     2
 40
2.0
 49
2.0
 49
-1.0
  0
LTYPE
  2
ACJISTGB
 70
     0
  3
__ . . __ . .
 72
    65
 73
     6
 40
9.0
 49
4.0
 49
-1.0
 49
1.0
 49
-1.0
 49
1.0
 49
-1.0
  0
LTYPE
  2
ACJISTGL
 70
     0
  3
_ _ _ _ _
 72
    65
 73
     2
 40
3.0
 49
2.0
 49
-1.0
  0
LTYPE
  2
ACISOWELD
 70
     0
  3
_ _ _ _ _
 72
    65
 73
     2
 40
2.0
 49
2.0
 49
-1.0
  0
LTYPE
  2
ACISOTGB
 70
     0
  3
__ . . __ . .
 72
    65
 73
     6
 40
9.0
 49
4.0
 49
-1.0
 49
1.0
 49
-1.0
 49
1.0
 49
-1.0
  0
LTYPE
  2
ACISOTGL
 70
     0
  3
_ _ _ _ _
 72
    65
 73
     2
 40
3.0
 49
2.0
 49
-1.0
  0
LTYPE
  2
AM_ISO02W050
 70
     0
  3
__ __ __ __ __ __ __ __ __ __ __ __ __ __ __
 72
    65
 73
     2
 40
7.5
 49
6.0
 49
-1.5
  0
LTYPE
  2
AM_ISO08W050
 70
     0
  3
____ . ____ . ____ . ____ . ____ . ____ . ____
 72
    65
 73
     4
 40
18.0
 49
12.0
 49
-1.5
 49
3.0
 49
-1.5
  0
LTYPE
  2
AM_ISO09W050
 70
     0
  3
_____ . . _____ . . _____ . . ____ .. ____
 72
    65
 73
     6
 40
22.5
 49
12.0
 49
-1.5
 49
3.0
 49
-1.5
 49
3.0
 49
-1.5
  0
LTYPE
  2
AMCONSTR
 70
     0
  3
_______________________
 72
    65
 73
     2
 40
9999.0
 49
9999.0
 49
0.0
  0
LTYPE
  2
AM_ISO08W050X2
 70
     0
  3
__ . __ . __ . __ . __ . __
 72
    65
 73
     4
 40
9.0
 49
6.0
 49
-0.75
 49
1.5
 49
-0.75
  0
LTYPE
  2
AM_ISO02W050X2
 70
     0
  3
 _ _ _ _ _ _ _ _ _ _ _ _
 72
    65
 73
     2
 40
3.75
 49
3.0
 49
-0.75
  0
LTYPE
  2
AMZIGZAG
 70
     0
  3
/\/-/\/-/\/-/\/-/\/-/\/
 72
    65
 73
     2
 40
11.0001
 49
0.0001
 49
-11.0
  0
LTYPE
  2
DASHED
 70
     0
  3
Dashed
 72
    65
 73
     2
 40
15.0
 49
7.0
 49
-8.0
  0
LTYPE
  2
DOT_CENTER
 70
     0
  3
Dot_Center
 72
    65
 73
     4
 40
14.0
 49
12.0
 49
-1.0
 49
0.0
 49
-1.0
  0
ENDTAB
  0
TABLE
  2
LAYER
 70
    23
  0
LAYER
  2
0
 70
     0
 62
     3
  6
CONTINUOUS
  0
LAYER
  2
SYS-BUHIN0
 70
     0
 62
     7
  6
CONTINUOUS
  0
LAYER
  2
AM_0
 70
     0
 62
     3
  6
CONTINUOUS
  0
LAYER
  2
DEFPOINTS
 70
     0
 62
     7
  6
CONTINUOUS
  0
LAYER
  2
AM_5
 70
     0
 62
     7
  6
CONTINUOUS
  0
LAYER
  2
AM_BOR
 70
     0
 62
     7
  6
CONTINUOUS
  0
LAYER
  2
SYS-BUHINCODE
 70
     0
 62
     7
  6
CONTINUOUS
  0
LAYER
  2
AM_7
 70
     0
 62
     4
  6
CENTER
  0
LAYER
  2
AM_3
 70
     0
 62
     7
  6
HIDDEN
  0
LAYER
  2
AM_12
 70
     0
 62
   253
  6
CONTINUOUS
  0
LAYER
  2
AM_PAREF
 70
     0
 62
     4
  6
CONTINUOUS
  0
LAYER
  2
AM_6
 70
     0
 62
     7
  6
CONTINUOUS
  0
LAYER
  2
AM_8
 70
     0
 62
   253
  6
CONTINUOUS
  0
LAYER
  2
AM_4
 70
     0
 62
     6
  6
CONTINUOUS
  0
LAYER
  2
AM_10
 70
     0
 62
     7
  6
CONTINUOUS
  0
LAYER
  2
AM_CL
 70
     0
 62
     1
  6
CONTINUOUS
  0
LAYER
  2
AM_2
 70
     0
 62
     5
  6
PHANTOM2
  0
LAYER
  2
AM_1N
 70
     0
 62
    14
  6
CONTINUOUS
  0
LAYER
  2
AM_1
 70
     0
 62
    14
  6
PHANTOM2
  0
LAYER
  2
AM_9
 70
     0
 62
    -7
  6
CONTINUOUS
  0
LAYER
  2
SYS-TEISEI0
 70
     0
 62
     7
  6
CONTINUOUS
  0
LAYER
  2
1
 70
     0
 62
     7
  6
CONTINUOUS
  0
LAYER
  2
2
 70
     0
 62
     7
  6
CONTINUOUS
  0
ENDTAB
  0
TABLE
  2
STYLE
 70
    17
  0
STYLE
  2
STANDARD
 70
     0
 40
0.0
 41
1.0
 50
0.0
 71
     0
 42
3.0
  3
dim.shx
  4
extfont.shx
  0
STYLE
  2
KNJYOKO
 70
     0
 40
0.0
 41
1.0
 50
0.0
 71
     0
 42
3.099999904632567
  3
TXT.shx
  4
extfont.shx
  0
STYLE
  2
ACANSTS
 70
     0
 40
1.0
 41
1.0
 50
0.0
 71
     0
 42
0.2
  3
romans.shx
  4
extfont.shx
  0
STYLE
  2
ACANSGDT
 70
     0
 40
0.0
 41
1.0
 50
0.0
 71
     0
 42
0.2
  3
amgdt.shx
  4

  0
STYLE
  2
ACJISTS
 70
     0
 40
1.0
 41
1.0
 50
0.0
 71
     0
 42
0.2
  3
isocp.shx
  4
extfont.shx
  0
STYLE
  2
ACJISGDT
 70
     0
 40
0.0
 41
1.0
 50
0.0
 71
     0
 42
0.2
  3
amgdt.shx
  4

  0
STYLE
  2
MINNTYOU
 70
     0
 40
0.0
 41
1.0
 50
0.0
 71
     0
 42
3.0
  3
txt
  4

  0
STYLE
  2
R寸法
 70
     0
 40
2.0
 41
1.0
 50
0.0
 71
     0
 42
3.0
  3
dim.shx
  4
extfont.shx
  0
STYLE
  2
ANKTATE
 70
     4
 40
0.0
 41
1.0
 50
0.0
 71
     0
 42
3.099999904632567
  3
TXT
  4

  0
STYLE
  2
KNJTATE
 70
     4
 40
0.0
 41
1.0
 50
0.0
 71
     0
 42
3.099999904632567
  3
TXT
  4
BIGFONT
  0
STYLE
  2
ACISOTS
 70
     0
 40
1.0
 41
1.0
 50
0.0
 71
     0
 42
2.5
  3
isocp.shx
  4
extfont.shx
  0
STYLE
  2
ACISOGDT
 70
     0
 40
0.0
 41
1.0
 50
0.0
 71
     0
 42
2.5
  3
amgdt.shx
  4

  0
STYLE
  2
CONVERTER_1
 70
     0
 40
0.0
 41
0.63
 50
0.0
 71
     0
 42
0.0
  3
txt.shx
  4

  0
STYLE
  2
CONVERTER_3
 70
     0
 40
0.0
 41
0.6230000000000001
 50
0.0
 71
     0
 42
0.0
  3
txt
  4

  0
STYLE
  2
CONVERTER_8
 70
     0
 40
0.0
 41
0.534
 50
0.0
 71
     0
 42
0.0
  3
txt
  4

  0
STYLE
  2

 70
     1
 40
0.0
 41
1.0
 50
0.0
 71
     0
 42
0.2
  3
genltshp.shx
  4

  0
STYLE
  2
CONVERTER_7
 70
     0
 40
0.0
 41
0.7650000000000001
 50
0.0
 71
     0
 42
0.0
  3
txt.shx
  4

  0
ENDTAB
  0
TABLE
  2
VIEW
 70
     6
  0
VIEW
  2
AM_VIEW1
 70
     0
 40
95.560349999996788
 10
100.7985233311003
 20
153.34052499999521
 41
175.68304666221039
 11
0.0
 21
0.0
 31
1.0
 12
0.0
 22
0.0
 32
0.0
 42
50.0
 43
0.0
 44
0.0
 50
0.0
 71
    16
  0
VIEW
  2
AM_VIEW2
 70
     0
 40
95.560349999996788
 10
201.6154766692801
 20
153.34052499999521
 41
175.68304666221039
 11
0.0
 21
0.0
 31
1.0
 12
0.0
 22
0.0
 32
0.0
 42
50.0
 43
0.0
 44
0.0
 50
0.0
 71
    16
  0
VIEW
  2
AM_VIEW3
 70
     0
 40
95.560349999996788
 10
100.7985233311003
 20
57.780174999998401
 41
175.68304666221039
 11
0.0
 21
0.0
 31
1.0
 12
0.0
 22
0.0
 32
0.0
 42
50.0
 43
0.0
 44
0.0
 50
0.0
 71
    16
  0
VIEW
  2
AM_VIEW4
 70
     0
 40
95.560349999996788
 10
201.6154766692801
 20
57.780174999998401
 41
175.68304666221039
 11
0.0
 21
0.0
 31
1.0
 12
0.0
 22
0.0
 32
0.0
 42
50.0
 43
0.0
 44
0.0
 50
0.0
 71
    16
  0
VIEW
  2
AM_VIEW5
 70
     0
 40
95.560349999996816
 10
151.20700000019011
 20
105.5603499999968
 41
175.68304666221039
 11
0.0
 21
0.0
 31
1.0
 12
0.0
 22
0.0
 32
0.0
 42
50.0
 43
0.0
 44
0.0
 50
0.0
 71
    16
  0
VIEW
  2
AM_VIEW6
 70
     0
 40
191.1187887929936
 10
151.20700000019019
 20
105.5603499999968
 41
351.36257966348762
 11
0.0
 21
0.0
 31
1.0
 12
0.0
 22
0.0
 32
0.0
 42
50.0
 43
0.0
 44
0.0
 50
0.0
 71
    16
  0
ENDTAB
  0
TABLE
  2
UCS
 70
     0
  0
ENDTAB
  0
TABLE
  2
APPID
 70
    60
  0
APPID
  2
ACAD
 70
     0
  0
APPID
  2
ACADANNOTATIVE
 70
     0
  0
APPID
  2
ACAD_MLEADERVER
 70
     0
  0
APPID
  2
MCAD_NO_VIS
 70
     0
  0
APPID
  2
ACAD_TEMP_GRAPHIC
 70
     0
  0
APPID
  2
AD_DRAW
 70
     0
  0
APPID
  2
ACATTRIBSERVICES
 70
     0
  0
APPID
  2
DESIGNERASSEMBLIES
 70
     0
  0
APPID
  2
ACADM_DIM_EDIT
 70
     0
  0
APPID
  2
AMDT_DM_ADJ
 70
     0
  0
APPID
  2
ACADANNOPO
 70
     0
  0
APPID
  2
ACAECLAYERSTANDARD
 70
     0
  0
APPID
  2
ACDBDYNAMICBLOCKGUID
 70
     0
  0
APPID
  2
ACDBBLOCKREPETAG
 70
     0
  0
APPID
  2
ACAUTHENVIRON
 70
     0
  0
APPID
  2
ACDBDYNAMICBLOCKTRUENAME
 70
     0
  0
APPID
  2
GENIUS_GENREC_14
 70
     0
  0
APPID
  2
GENIUS_GENOBJ-N-REC_13
 70
     0
  0
APPID
  2
GENIUS_GENODEF_13
 70
     0
  0
APPID
  2
ACAD_EXEMPT_FROM_CAD_STANDARDS
 70
     0
  0
APPID
  2
GENIUS_GENOBJ-N-CEN_13
 70
     0
  0
APPID
  2
GENIUS_GENCEN_19
 70
     0
  0
APPID
  2
ACAD_DSTYLE_DIMINSPECT
 70
     0
  0
APPID
  2
DCO15
 70
     0
  0
APPID
  2
ACAD_PSEXT
 70
     0
  0
APPID
  2
GENIUS_GENBH_13
 70
     0
  0
APPID
  2
GENIUS_GENOENT_13
 70
     0
  0
APPID
  2
GENIUS_GENOLIS_13
 70
     0
  0
APPID
  2
GENIUS_GENOBJ-NBEHI-BHF_13
 70
     0
  0
APPID
  2
GENIUS_GENOREF_13
 70
     0
  0
APPID
  2
GENIUS_GENOBJ-NBEHI-BHB_13
 70
     0
  0
APPID
  2
AMG_2DHIDE
 70
     0
  0
APPID
  2
AMG_2DSTRUCT_BTR
 70
     0
  0
APPID
  2
GENIUS_AMGTXT_16
 70
     0
  0
APPID
  2
GENIUS_GENOBJ-N-HTC_13
 70
     0
  0
APPID
  2
GENIUS_GENHATCH_13
 70
     0
  0
APPID
  2
GEVID1208849169
 70
     0
  0
APPID
  2
GEVDC
 70
     0
  0
APPID
  2
ACADM_2DVIEW_IGN_NOTIFY
 70
     0
  0
APPID
  2
GEVID1208849170
 70
     0
  0
APPID
  2
GEVID1208849171
 70
     0
  0
APPID
  2
GEVRADREF
 70
     0
  0
APPID
  2
ACAD_DSTYLE_DIMJAG
 70
     0
  0
APPID
  2
ACAD_DSTYLE_DIMTALN
 70
     0
  0
APPID
  2
GENIUS_GENDTOL_13
 70
     0
  0
APPID
  2
GENIUS_GENTRA_14
 70
     0
  0
APPID
  2
GENIUS_GENOBJ-N-TIT_13
 70
     0
  0
APPID
  2
GENIUS_GENTITLE_13
 70
     0
  0
APPID
  2
GENIUS_GENSCREG_15
 70
     0
  0
APPID
  2
GENIUS_GENOBJ-N-SDF_13
 70
     0
  0
APPID
  2
ACAD_DSTYLE_DIMRADIAL_EXTENSION
 70
     0
  0
APPID
  2
GENIUS_GENOBJ-N-FIL_13
 70
     0
  0
APPID
  2
GENIUS_GENOBJ-N-CRS_13
 70
     0
  0
APPID
  2
GENIUS_GENDIMSH_14
 70
     0
  0
APPID
  2
ACAD_DSTYLE_DIMANGULAR_EXT
 70
     0
  0
APPID
  2
ACAD_NAV_VCDISPLAY
 70
     0
  0
APPID
  2
ACAD_DSTYLE_DIMBREAK
 70
     0
  0
APPID
  2
GENIUS_GENSCREG_13
 70
     0
  0
APPID
  2
CONTENTBLOCKICON
 70
     0
  0
APPID
  2
AcDbAttr
 70
     0
  0
ENDTAB
  0
TABLE
  2
DIMSTYLE
 70
    25
  0
DIMSTYLE
  2
STANDARD
 70
     0
  3

  4

  5

  6

  7

 40
1.0
 41
1.0
 42
0.8
 43
0.38
 44
1.0
 45
0.0
 46
0.0
 47
0.0
 48
0.0
140
3.1000000000000001
141
0.09
142
0.0
143
25.399999999999999
144
1.0
145
0.5
146
1.0
147
0.09
 71
     0
 72
     0
 73
     0
 74
     0
 75
     0
 76
     0
 77
     1
 78
     0
170
     0
171
     2
172
     0
173
     0
174
     0
175
     0
176
     0
177
     0
178
     0
  0
DIMSTYLE
  2
AM_ANSI
 70
     0
  3

  4
mm
  5

  6

  7

 40
1.0
 41
0.1
 42
0.05
 43
0.5
 44
0.1
 45
0.0
 46
0.0
 47
0.1
 48
0.1
140
0.12
141
0.0
142
0.0
143
25.399999999999999
144
1.0
145
0.0
146
0.71
147
0.06
 71
     0
 72
     0
 73
     1
 74
     1
 75
     0
 76
     0
 77
     0
 78
     7
170
     0
171
     2
172
     0
173
     0
174
     0
175
     0
176
   256
177
   256
178
     2
  0
DIMSTYLE
  2
AM_ANSI$3
 70
     0
  3

  4
mm
  5

  6

  7

 40
1.0
 41
0.1
 42
0.05
 43
0.5
 44
0.1
 45
0.0
 46
0.0
 47
0.1
 48
0.1
140
0.12
141
0.0
142
0.0
143
25.399999999999999
144
1.0
145
0.0
146
0.71
147
0.06
 71
     0
 72
     0
 73
     1
 74
     1
 75
     0
 76
     0
 77
     0
 78
     7
170
     0
171
     2
172
     0
173
     0
174
     0
175
     0
176
   256
177
   256
178
     2
  0
DIMSTYLE
  2
AM_ANSI$4
 70
     0
  3

  4
mm
  5

  6

  7

 40
1.0
 41
0.1
 42
0.05
 43
0.5
 44
0.1
 45
0.0
 46
0.0
 47
0.1
 48
0.1
140
0.12
141
0.0
142
0.0
143
25.399999999999999
144
1.0
145
0.0
146
0.71
147
0.06
 71
     0
 72
     0
 73
     1
 74
     1
 75
     0
 76
     0
 77
     0
 78
     7
170
     0
171
     2
172
     0
173
     0
174
     0
175
     0
176
   256
177
   256
178
     2
  0
DIMSTYLE
  2
AM_ANSI$7
 70
     0
  3

  4
mm
  5

  6

  7

 40
1.0
 41
0.1
 42
0.05
 43
0.5
 44
0.1
 45
0.0
 46
0.0
 47
0.1
 48
0.1
140
0.24
141
0.0
142
0.0
143
25.399999999999999
144
1.0
145
0.0
146
0.71
147
0.06
 71
     0
 72
     0
 73
     1
 74
     1
 75
     0
 76
     0
 77
     0
 78
     7
170
     0
171
     2
172
     0
173
     0
174
     0
175
     0
176
   256
177
   256
178
     2
  0
DIMSTYLE
  2
AM_ANSI$SF
 70
     0
  3

  4
mm
  5

  6

  7

 40
1.0
 41
0.1
 42
0.05
 43
0.5
 44
0.1
 45
0.0
 46
0.0
 47
0.1
 48
0.1
140
0.12
141
0.0
142
0.0
143
25.399999999999999
144
1.0
145
0.0
146
0.71
147
0.06
 71
     0
 72
     0
 73
     1
 74
     1
 75
     1
 76
     1
 77
     0
 78
     7
170
     0
171
     2
172
     0
173
     0
174
     0
175
     0
176
   256
177
   256
178
     2
  0
DIMSTYLE
  2
AM_ANSI$SH
 70
     0
  3

  4
mm
  5

  6
GENAXEH
  7

 40
1.0
 41
0.1
 42
0.05
 43
0.5
 44
0.1
 45
0.0
 46
0.0
 47
0.1
 48
0.1
140
0.12
141
0.0
142
0.0
143
25.399999999999999
144
1.0
145
0.0
146
0.71
147
0.06
 71
     0
 72
     0
 73
     1
 74
     1
 75
     1
 76
     1
 77
     0
 78
     7
170
     0
171
     2
172
     0
173
     1
174
     0
175
     0
176
   256
177
   256
178
     2
  0
DIMSTYLE
  2
AM_JIS
 70
     0
  3

  4
"
  5
OPEN30
  6

  7

 40
1.0
 41
2.5
 42
1.0
 43
7.0
 44
1.0
 45
0.0
 46
0.0
 47
0.1
 48
0.1
140
3.0
141
0.0
142
0.0
143
0.0393701
144
1.0
145
0.0
146
0.71
147
1.0
 71
     0
 72
     0
 73
     0
 74
     0
 75
     0
 76
     0
 77
     3
 78
     8
170
     0
171
     2
172
     1
173
     0
174
     0
175
     0
176
     7
177
     7
178
     7
  0
DIMSTYLE
  2
AM_JIS$3
 70
     0
  3

  4
"
  5
OPEN30
  6

  7

 40
1.0
 41
2.5
 42
1.0
 43
10.0
 44
1.0
 45
0.0
 46
0.0
 47
0.1
 48
0.1
140
3.0
141
0.0
142
0.0
143
0.0393701
144
1.0
145
0.0
146
0.71
147
1.0
 71
     0
 72
     0
 73
     0
 74
     1
 75
     0
 76
     0
 77
     3
 78
     8
170
     0
171
     2
172
     0
173
     0
174
     0
175
     0
176
     7
177
     7
178
     7
  0
DIMSTYLE
  2
AM_JIS$4
 70
     0
  3

  4
"
  5
OPEN30
  6

  7

 40
1.0
 41
2.5
 42
1.0
 43
10.0
 44
1.0
 45
0.0
 46
0.0
 47
0.1
 48
0.1
140
2.0
141
0.0
142
0.0
143
0.0393701
144
1.0
145
0.0
146
0.71
147
1.0
 71
     0
 72
     0
 73
     0
 74
     0
 75
     0
 76
     0
 77
     3
 78
     8
170
     0
171
     2
172
     0
173
     0
174
     0
175
     0
176
     7
177
     7
178
     7
  0
DIMSTYLE
  2
AM_JIS$6
 70
     0
  3

  4
"
  5
OPEN30
  6

  7

 40
1.0
 41
2.5
 42
1.0
 43
10.0
 44
1.0
 45
0.0
 46
0.0
 47
0.1
 48
0.1
140
3.0
141
0.0
142
0.0
143
0.0393701
144
1.0
145
0.0
146
0.71
147
1.0
 71
     0
 72
     0
 73
     0
 74
     0
 75
     0
 76
     0
 77
     0
 78
     8
170
     0
171
     2
172
     1
173
     0
174
     0
175
     0
176
   256
177
     7
178
     7
  0
DIMSTYLE
  2
AM_JIS$7
 70
     0
  3

  4
"
  5
OPEN30
  6

  7

 40
1.0
 41
2.5
 42
1.0
 43
10.0
 44
1.0
 45
0.0
 46
0.0
 47
0.1
 48
0.1
140
3.0
141
0.0
142
0.0
143
0.0393701
144
1.0
145
0.0
146
0.71
147
1.0
 71
     0
 72
     0
 73
     0
 74
     0
 75
     0
 76
     0
 77
     3
 78
     8
170
     0
171
     2
172
     1
173
     0
174
     0
175
     0
176
     7
177
   256
178
     7
  0
DIMSTYLE
  2
AM_JIS$SF
 70
     0
  3

  4
"
  5
OPEN30
  6

  7

 40
1.0
 41
2.5
 42
1.0
 43
7.0
 44
1.0
 45
0.0
 46
0.0
 47
0.1
 48
0.1
140
3.0
141
0.0
142
0.0
143
0.0393701
144
1.0
145
0.0
146
0.71
147
1.0
 71
     0
 72
     0
 73
     0
 74
     0
 75
     1
 76
     1
 77
     3
 78
     8
170
     0
171
     2
172
     1
173
     0
174
     0
175
     0
176
     7
177
   256
178
     7
  0
DIMSTYLE
  2
AM_JIS$SH
 70
     0
  3

  4
"
  5

  6
GENAXEH
  7
OPEN30
 40
1.0
 41
2.5
 42
1.0
 43
7.0
 44
1.0
 45
0.0
 46
0.0
 47
0.1
 48
0.1
140
3.0
141
0.0
142
0.0
143
0.0393701
144
2.0
145
0.0
146
0.71
147
1.0
 71
     0
 72
     0
 73
     0
 74
     0
 75
     1
 76
     1
 77
     3
 78
     8
170
     0
171
     2
172
     1
173
     1
174
     0
175
     0
176
     7
177
   256
178
     7
  0
DIMSTYLE
  2
AM_JIS$2
 70
     0
  3

  4
"
  5
OPEN30
  6

  7

 40
1.0
 41
2.5
 42
1.0
 43
7.0
 44
1.0
 45
0.0
 46
0.0
 47
0.1
 48
0.1
140
3.0
141
0.0
142
0.0
143
0.0393701
144
1.0
145
0.0
146
0.71
147
1.0
 71
     0
 72
     0
 73
     0
 74
     0
 75
     0
 76
     0
 77
     3
 78
     8
170
     0
171
     2
172
     1
173
     0
174
     0
175
     0
176
     7
177
     7
178
     7
  0
DIMSTYLE
  2
AM_JIS$0
 70
     0
  3

  4
"
  5
OPEN30
  6

  7

 40
1.0
 41
2.5
 42
1.0
 43
7.0
 44
1.0
 45
0.0
 46
0.0
 47
0.1
 48
0.1
140
3.0
141
0.0
142
0.0
143
0.0393701
144
1.0
145
0.0
146
0.71
147
1.0
 71
     0
 72
     0
 73
     0
 74
     0
 75
     0
 76
     0
 77
     3
 78
     8
170
     0
171
     2
172
     1
173
     0
174
     0
175
     0
176
     7
177
     7
178
     7
  0
DIMSTYLE
  2
STANDARD$0
 70
     0
  3

  4

  5

  6

  7

 40
1.0
 41
1.0
 42
0.8
 43
0.38
 44
1.0
 45
0.0
 46
0.0
 47
0.0
 48
0.0
140
3.1000000000000001
141
0.09
142
0.0
143
25.399999999999999
144
1.0
145
0.5
146
1.0
147
0.09
 71
     0
 72
     0
 73
     0
 74
     0
 75
     0
 76
     0
 77
     1
 78
     0
170
     0
171
     2
172
     0
173
     0
174
     0
175
     0
176
     0
177
     0
178
     0
  0
DIMSTYLE
  2
ANNOTATIVE
 70
     0
  3

  4

  5

  6

  7

 40
1.0
 41
0.18
 42
0.0625
 43
0.38
 44
0.18
 45
0.0
 46
0.0
 47
0.0
 48
0.0
140
0.18
141
0.09
142
0.0
143
25.399999999999999
144
1.0
145
0.0
146
1.0
147
0.09
 71
     0
 72
     0
 73
     1
 74
     1
 75
     0
 76
     0
 77
     0
 78
     0
170
     0
171
     2
172
     0
173
     0
174
     0
175
     0
176
     0
177
     0
178
     0
  0
DIMSTYLE
  2
AM_ISO
 70
     0
  3

  4
"
  5

  6

  7

 40
1.0
 41
2.5
 42
1.0
 43
10.0
 44
1.0
 45
0.0
 46
0.0
 47
0.1
 48
0.1
140
3.5
141
0.0
142
0.0
143
0.0393701
144
1.0
145
0.0
146
0.71
147
1.5
 71
     0
 72
     0
 73
     0
 74
     0
 75
     0
 76
     0
 77
     1
 78
     8
170
     0
171
     2
172
     1
173
     0
174
     0
175
     0
176
   256
177
   256
178
     2
  0
DIMSTYLE
  2
AM_ISO$3
 70
     0
  3

  4
"
  5

  6

  7

 40
1.0
 41
2.5
 42
1.0
 43
10.0
 44
1.0
 45
0.0
 46
0.0
 47
0.1
 48
0.1
140
3.5
141
0.0
142
0.0
143
0.0393701
144
1.0
145
0.0
146
0.71
147
1.5
 71
     0
 72
     0
 73
     0
 74
     1
 75
     0
 76
     0
 77
     1
 78
     8
170
     0
171
     2
172
     0
173
     0
174
     0
175
     0
176
   256
177
   256
178
     2
  0
DIMSTYLE
  2
AM_ISO$4
 70
     0
  3

  4
"
  5

  6

  7

 40
1.0
 41
2.5
 42
1.0
 43
10.0
 44
1.0
 45
0.0
 46
0.0
 47
0.1
 48
0.1
140
3.5
141
0.0
142
0.0
143
0.0393701
144
1.0
145
0.0
146
0.71
147
1.5
 71
     0
 72
     0
 73
     0
 74
     1
 75
     0
 76
     0
 77
     1
 78
     8
170
     0
171
     2
172
     0
173
     0
174
     0
175
     0
176
   256
177
   256
178
     2
  0
DIMSTYLE
  2
AM_ISO$6
 70
     0
  3

  4
"
  5

  6

  7

 40
1.0
 41
2.5
 42
1.0
 43
10.0
 44
1.0
 45
0.0
 46
0.0
 47
0.1
 48
0.1
140
3.5
141
0.0
142
0.0
143
0.0393701
144
1.0
145
0.0
146
0.71
147
1.5
 71
     0
 72
     0
 73
     0
 74
     0
 75
     0
 76
     0
 77
     0
 78
     8
170
     0
171
     2
172
     1
173
     0
174
     0
175
     0
176
   256
177
   256
178
     2
  0
DIMSTYLE
  2
AM_ISO$7
 70
     0
  3

  4
"
  5

  6

  7

 40
1.0
 41
2.5
 42
1.0
 43
10.0
 44
1.0
 45
0.0
 46
0.0
 47
0.1
 48
0.1
140
5.0
141
0.0
142
0.0
143
0.0393701
144
1.0
145
0.0
146
0.71
147
1.5
 71
     0
 72
     0
 73
     0
 74
     0
 75
     0
 76
     0
 77
     1
 78
     8
170
     0
171
     2
172
     1
173
     0
174
     0
175
     0
176
   256
177
   256
178
     2
  0
DIMSTYLE
  2
AM_ISO$SF
 70
     0
  3

  4
"
  5

  6

  7

 40
1.0
 41
2.5
 42
1.0
 43
10.0
 44
1.0
 45
0.0
 46
0.0
 47
0.1
 48
0.1
140
3.5
141
0.0
142
0.0
143
0.0393701
144
1.0
145
0.0
146
0.71
147
1.5
 71
     0
 72
     0
 73
     0
 74
     0
 75
     1
 76
     1
 77
     1
 78
     8
170
     0
171
     2
172
     1
173
     0
174
     0
175
     0
176
   256
177
   256
178
     2
  0
DIMSTYLE
  2
AM_ISO$SH
 70
     0
  3

  4
"
  5

  6
GENAXEH
  7

 40
1.0
 41
2.5
 42
1.0
 43
10.0
 44
1.0
 45
0.0
 46
0.0
 47
0.1
 48
0.1
140
3.5
141
0.0
142
0.0
143
0.0393701
144
2.0
145
0.0
146
0.71
147
1.5
 71
     0
 72
     0
 73
     0
 74
     0
 75
     1
 76
     1
 77
     1
 78
     8
170
     0
171
     2
172
     1
173
     1
174
     0
175
     0
176
   256
177
   256
178
     2
  0
ENDTAB
  0
ENDSEC
  0
SECTION
  2
BLOCKS
  0
BLOCK
  8
0
  2
$MODEL_SPACE
 70
     0
 10
0.0
 20
0.0
 30
0.0
  3
$MODEL_SPACE
  1

  0
ENDBLK
  5
1D3
  8
0
  0
BLOCK
 67
     1
  8
0
  2
$PAPER_SPACE
 70
     0
 10
0.0
 20
0.0
 30
0.0
  3
$PAPER_SPACE
  1

  0
ENDBLK
  5
1D1
 67
     1
  8
0
  0
BLOCK
  8
0
  2
GENAXEH
 70
     0
 10
0.0
 20
0.0
 30
0.0
  3
GENAXEH
  1

  0
LINE
  5
264
  8
0
 10
-1.0
 20
0.0
 30
0.0
 11
1.0
 21
0.0
 31
0.0
  0
ENDBLK
  5
266
  8
0
  0
BLOCK
  8
0
  2
_OPEN30
 70
     0
 10
0.0
 20
0.0
 30
0.0
  3
_OPEN30
  1

  0
LINE
  5
2FA
  8
0
  6
BYBLOCK
 62
     0
 10
-1.0
 20
0.26794919
 30
0.0
 11
0.0
 21
0.0
 31
0.0
  0
LINE
  5
2FB
  8
0
  6
BYBLOCK
 62
     0
 10
0.0
 20
0.0
 30
0.0
 11
-1.0
 21
-0.26794919
 31
0.0
  0
LINE
  5
2FC
  8
0
  6
BYBLOCK
 62
     0
 10
0.0
 20
0.0
 30
0.0
 11
-1.0
 21
0.0
 31
0.0
  0
ENDBLK
  5
2FE
  8
0
  0
BLOCK
  8
0
  2
MYPLIST0
 70
     2
 10
0.0
 20
0.0
 30
0.0
  3
MYPLIST0
  1

  0
LINE
  5
346
  8
SYS-BUHIN0
  6
CONTINUOUS
 62
     4
 10
-170.0
 20
7.0
 30
0.0
 11
0.0
 21
7.0
 31
0.0
  0
LINE
  5
347
  8
SYS-BUHIN0
  6
CONTINUOUS
 62
     4
 10
-170.0
 20
-0.0000000000030695
 30
0.0
 11
0.0
 21
-0.0000000000001137
 31
0.0
  0
LINE
  5
348
  8
SYS-BUHIN0
  6
CONTINUOUS
 62
     4
 10
-170.0
 20
7.0
 30
0.0
 11
-170.0
 21
0.0
 31
0.0
  0
LINE
  5
349
  8
SYS-BUHIN0
  6
CONTINUOUS
 62
     4
 10
0.0
 20
7.0
 30
0.0
 11
0.0
 21
0.0
 31
0.0
  0
LINE
  5
34A
  8
SYS-BUHIN0
  6
CONTINUOUS
 62
     4
 10
-161.0
 20
7.0
 30
0.0
 11
-161.0
 21
0.0
 31
0.0
  0
LINE
  5
34B
  8
SYS-BUHIN0
  6
CONTINUOUS
 62
     4
 10
-99.0
 20
7.0
 30
0.0
 11
-99.0
 21
0.0
 31
0.0
  0
LINE
  5
34C
  8
SYS-BUHIN0
  6
CONTINUOUS
 62
     4
 10
-72.0
 20
7.0
 30
0.0
 11
-72.0
 21
0.0
 31
0.0
  0
LINE
  5
34D
  8
SYS-BUHIN0
  6
CONTINUOUS
 62
     4
 10
-63.0
 20
7.0
 30
0.0
 11
-63.0
 21
0.0
 31
0.0
  0
LINE
  5
34E
  8
SYS-BUHIN0
  6
CONTINUOUS
 62
     4
 10
-16.0
 20
7.0
 30
0.0
 11
-16.0
 21
0.0
 31
0.0
  0
TEXT
  5
34F
  8
SYS-BUHIN0
  6
CONTINUOUS
 62
     7
 10
-13.61264708219346
 20
0.6000000119208835
 30
0.0
 40
1.1000000000000001
  1
PARTS NO.
 41
1.3
  0
TEXT
  5
350
  8
SYS-BUHIN0
  6
CONTINUOUS
 62
     7
 10
-14.36429419116018
 20
3.0691472933651762
 30
0.0
 40
2.2000000000000002
  1
部品コード
  0
TEXT
  5
351
  8
SYS-BUHIN0
  6
CONTINUOUS
 62
     7
 10
-43.852454807937526
 20
0.6000000119208835
 30
0.0
 40
1.1000000000000001
  1
REMARKS
 41
1.3
  0
TEXT
  5
352
  8
SYS-BUHIN0
  6
CONTINUOUS
 62
     7
 10
-47.370000243186951
 20
2.7500000476836699
 30
0.0
 40
2.7999999999999989
  1
備    考
  0
TEXT
  5
353
  8
SYS-BUHIN0
  6
CONTINUOUS
 62
     7
 10
-69.144963642251696
 20
0.6000000119208835
 30
0.0
 40
1.1000000000000001
  1
UNIT
  0
TEXT
  5
354
  8
SYS-BUHIN0
  6
CONTINUOUS
 62
     7
 10
-70.272262370934413
 20
2.6949072988287521
 30
0.0
 40
2.7999999999999989
  1
数量
  0
TEXT
  5
355
  8
SYS-BUHIN0
  6
CONTINUOUS
 62
     7
 10
-90.559234383463263
 20
0.6000000119208835
 30
0.0
 40
1.1000000000000001
  1
MATERIAL
 41
1.3
  0
TEXT
  5
357
  8
SYS-BUHIN0
  6
CONTINUOUS
 62
     7
 10
-138.9093619295486
 20
0.6000000119208835
 30
0.0
 40
1.1000000000000001
  1
  DESCRIPTION
 41
1.3
  0
TEXT
  5
358
  8
SYS-BUHIN0
  6
CONTINUOUS
 62
     7
 10
-142.0050003230572
 20
2.7500000476836699
 30
0.0
 40
2.7999999999999989
  1
 部  品  名
  0
TEXT
  5
359
  8
SYS-BUHIN0
  6
CONTINUOUS
 62
     7
 10
-166.63404873957319
 20
0.6000000119208835
 30
0.0
 40
1.1000000000000001
  1
NO.
  0
TEXT
  5
35A
  8
SYS-BUHIN0
  6
CONTINUOUS
 62
     7
 10
-168.29000008106229
 20
2.7500000476836699
 30
0.0
 40
2.7999999999999989
  1
項番
  0
ATTDEF
  5
35B
  8
AM_0
 62
     7
 10
-168.79000008106229
 20
3.5
 30
0.0
 40
3.1000000000000001
  1

  3

  2
ITEM
 70
     1
1001
AcDbAttr
1070
     0
1070
     1
  0
TEXT
  5
C0B
  8
AM_BOR
 62
     7
 10
-91.770000159740434
 20
2.7000000476837149
 30
0.0
 40
2.7999999999999989
  1
材　　質
  0
ENDBLK
  5
35C
  8
0
  0
BLOCK
  8
0
  2
MYPLIST1
 70
     2
 10
0.0
 20
0.0
 30
0.0
  3
MYPLIST1
  1

  0
LINE
  5
393
  8
SYS-BUHIN0
  6
CONTINUOUS
 62
     4
 10
-170.0
 20
6.0
 30
0.0
 11
0.0
 21
6.0
 31
0.0
  0
LINE
  5
394
  8
SYS-BUHIN0
  6
CONTINUOUS
 62
     4
 10
-170.0
 20
0.0
 30
0.0
 11
-170.0
 21
6.0
 31
0.0
  0
LINE
  5
395
  8
SYS-BUHIN0
  6
CONTINUOUS
 62
     4
 10
-161.0
 20
0.0
 30
0.0
 11
-161.0
 21
6.0
 31
0.0
  0
LINE
  5
396
  8
SYS-BUHIN0
  6
CONTINUOUS
 62
     4
 10
-99.0
 20
0.0
 30
0.0
 11
-99.0
 21
6.0
 31
0.0
  0
LINE
  5
397
  8
SYS-BUHIN0
  6
CONTINUOUS
 62
     4
 10
-72.0
 20
0.0
 30
0.0
 11
-72.0
 21
6.0
 31
0.0
  0
LINE
  5
398
  8
SYS-BUHIN0
  6
CONTINUOUS
 62
     4
 10
-63.0
 20
0.0
 30
0.0
 11
-63.0
 21
6.0
 31
0.0
  0
LINE
  5
399
  8
SYS-BUHIN0
  6
CONTINUOUS
 62
     4
 10
-16.0
 20
0.0
 30
0.0
 11
-16.0
 21
6.0
 31
0.0
  0
LINE
  5
39A
  8
SYS-BUHIN0
  6
CONTINUOUS
 62
     4
 10
0.0
 20
0.0
 30
0.0
 11
0.0
 21
6.0
 31
0.0
  0
LINE
  5
39B
  8
SYS-BUHIN0
  6
CONTINUOUS
 62
     4
 10
-170.0
 20
0.0
 30
0.0
 11
0.0
 21
0.0
 31
0.0
  0
ATTDEF
  5
39C
  8
SYS-BUHINCODE
 10
-14.0
 20
2.5
 30
0.0
 40
1.0
  1

 11
-14.0
 21
3.0
 31
0.0
  3
部品コード
  2
PCODE
 70
     0
 74
     2
1001
AcDbAttr
1070
     0
1070
     1
  0
ATTDEF
  5
39D
  8
SYS-BUHIN0
  6
CONTINUOUS
 62
     7
 10
-61.0
 20
2.0
 30
0.0
 40
2.0
  1

 11
-61.0
 21
3.0
 31
0.0
  3
備考
  2
NOTE
 70
     0
 74
     2
1001
AcDbAttr
1070
     0
1070
     1
  0
ATTDEF
  5
39E
  8
SYS-BUHIN0
  6
CONTINUOUS
 62
     7
 10
-67.5
 20
3.0
 30
0.0
 40
2.5
  1

 72
     4
 11
-67.5
 21
3.0
 31
0.0
  3
数量
  2
QTY
 70
     0
1001
AcDbAttr
1070
     0
1070
     1
  0
ATTDEF
  5
39F
  8
SYS-BUHIN0
  6
CONTINUOUS
 62
     7
 10
-97.595958160209875
 20
2.0
 30
0.0
 40
2.0
  1

 11
-97.595958160209875
 21
3.0
 31
0.0
  3
材質
  2
MATERIAL
 70
     0
 74
     2
1001
AcDbAttr
1070
     0
1070
     1
  0
ATTDEF
  5
3A0
  8
SYS-BUHIN0
  6
CONTINUOUS
 62
     7
 10
-159.0
 20
1.75
 30
0.0
 40
2.5
  1

 11
-159.0
 21
3.0
 31
0.0
  3
部品名
  2
DESCR
 70
     0
 74
     2
1001
AcDbAttr
1070
     0
1070
     1
  0
ATTDEF
  5
3A1
  8
SYS-BUHIN0
  6
CONTINUOUS
 62
     7
 10
-165.5
 20
3.0
 30
0.0
 40
2.5
  1

 72
     4
 11
-165.5
 21
3.0
 31
0.0
  3
項番
  2
ITEM
 70
     0
1001
AcDbAttr
1070
     0
1070
     1
  0
ENDBLK
  5
370
  8
0
  0
BLOCK
  8
0
  2
ZUWAKU-A4H
 70
     0
 10
0.0
 20
0.0
 30
0.0
  3
ZUWAKU-A4H
  1

  0
LINE
  5
1B9F
  8
AM_BOR
 62
     3
 10
12.956999999995089
 20
201.1206999999936
 30
0.0
 11
12.956999999999759
 21
10.0
 31
0.0
  0
LINE
  5
1BA0
  8
AM_BOR
 62
     3
 10
289.45700000038528
 20
201.12069999985769
 30
0.0
 11
289.45700000001921
 21
10.0
 31
0.0
  0
LINE
  5
1BA1
  8
AM_BOR
 62
     3
 10
12.95699999999508
 20
201.1206999999936
 30
0.0
 11
289.45700000038528
 21
201.12069999985769
 31
0.0
  0
LINE
  5
1BA2
  8
AM_BOR
 62
     3
 10
12.95699999999974
 20
10.0
 30
0.0
 11
289.45700000001921
 21
10.0
 31
0.0
  0
TEXT
  5
1BA3
  8
SYS-TEISEI0
  6
CONTINUOUS
 62
     3
 10
21.84200001765786
 20
20.950000047683719
 30
0.0
 40
3.099999904632567
  1
 
  0
TEXT
  5
1BA4
  8
SYS-TEISEI0
  6
CONTINUOUS
 62
     3
 10
47.342000044479938
 20
20.950000047683719
 30
0.0
 40
3.099999904632567
  1
 
  0
TEXT
  5
1BA5
  8
SYS-TEISEI0
  6
CONTINUOUS
 62
     3
 10
106.7019999570846
 20
20.950000047683719
 30
0.0
 40
3.099999904632567
  1
 
  0
TEXT
  5
1BA6
  8
SYS-TEISEI0
  6
CONTINUOUS
 62
     3
 10
114.4019999570846
 20
20.950000047683719
 30
0.0
 40
3.099999904632567
  1
 
  0
TEXT
  5
1BA7
  8
SYS-TEISEI0
  6
CONTINUOUS
 62
     3
 10
21.84200001765786
 20
25.950000047683719
 30
0.0
 40
3.099999904632567
  1
 
  0
TEXT
  5
1BA8
  8
SYS-TEISEI0
  6
CONTINUOUS
 62
     3
 10
47.342000044479938
 20
25.950000047683719
 30
0.0
 40
3.099999904632567
  1
 
  0
TEXT
  5
1BA9
  8
SYS-TEISEI0
  6
CONTINUOUS
 62
     3
 10
106.7019999570846
 20
25.950000047683719
 30
0.0
 40
3.099999904632567
  1
 
  0
TEXT
  5
1BAA
  8
SYS-TEISEI0
  6
CONTINUOUS
 62
     3
 10
114.4019999570846
 20
25.950000047683719
 30
0.0
 40
3.099999904632567
  1
 
  0
TEXT
  5
1BAB
  8
SYS-BUHIN0
  6
CONTINUOUS
 62
     3
 10
260.70699999999999
 20
52.450000047683723
 30
0.0
 40
3.099999904632567
  1
 
  0
TEXT
  5
1BAC
  8
SYS-BUHIN0
  6
CONTINUOUS
 62
     3
 10
260.70699999999999
 20
58.45000004768373
 30
0.0
 40
3.099999904632567
  1
 
  0
TEXT
  5
1BAD
  8
SYS-BUHIN0
  6
CONTINUOUS
 62
     3
 10
260.70699999999999
 20
64.450000047683716
 30
0.0
 40
3.099999904632567
  1
 
  0
TEXT
  5
1BAE
  8
AM_BOR
 10
12.956999999999759
 20
10.0
 30
0.0
 40
5.0
  1
!GENTITLE-LL
  0
TEXT
  5
1BAF
  8
AM_BOR
 10
289.45700000001921
 20
10.0
 30
0.0
 40
5.0
  1
!GENTITLE-INSERT
  0
TEXT
  5
1BB0
  8
AM_BOR
 10
289.45700000038528
 20
201.12069999985769
 30
0.0
 40
5.0
  1
!GENTITLE-RU
  0
TEXT
  5
1BB1
  8
AM_BOR
 10
297.0
 20
210.0
 30
0.0
 40
5.0
  1
!GENTITLE-MAX
  0
ENDBLK
  5
1BB3
  8
0
  0
BLOCK
  8
0
  2
A$C1C06296A
 70
     2
 10
0.0
 20
0.0
 30
0.0
  3
A$C1C06296A
  1

  0
LINE
  5
204C
  8
AM_BOR
 10
198.86851880399371
 20
17.886744577931989
 30
0.0
 11
203.2337455721775
 21
13.521517809748619
 31
0.0
  0
LINE
  5
204D
  8
AM_BOR
 10
198.8685188039936
 20
17.866715351316039
 30
0.0
 11
198.86851880399399
 21
14.128964361178911
 31
0.0
  0
LINE
  5
204E
  8
AM_BOR
 10
204.7045172738834
 20
17.866715326469411
 30
0.0
 11
204.70451727388391
 21
14.181128845625549
 31
0.0
  0
LINE
  5
204F
  8
AM_BOR
 10
204.20428883360731
 20
17.793010290175861
 30
0.0
 11
204.204288833607
 21
14.69861035774108
 31
0.0
  0
LINE
  5
2050
  8
AM_BOR
 10
199.3687472442698
 20
17.176052465333349
 30
0.0
 11
199.36874724427059
 21
14.197800355103411
 31
0.0
  0
LINE
  5
2051
  8
AM_BOR
 10
200.43756462039269
 20
18.46533457095553
 30
0.0
 11
204.20428883360731
 21
14.69861035774052
 31
0.0
  0
LINE
  5
2052
  8
AM_BOR
 10
199.36874724426971
 20
17.17605246533255
 30
0.0
 11
203.02713287203409
 21
13.51766683756852
 31
0.0
  0
ARC
  5
2053
  8
AM_BOR
 10
198.36829036868701
 20
17.866715351316049
 30
0.0
 40
0.5002284402762121
 50
0.0
 51
50.265515568291427
  0
ARC
  5
2054
  8
AM_BOR
 10
198.36829034384081
 20
14.12896436117892
 30
0.0
 40
0.5002284402762121
 50
304.69759678405279
 51
0.0
  0
ARC
  5
2055
  8
AM_BOR
 10
205.20474573403669
 20
17.866715326469411
 30
0.0
 40
0.5002284402762121
 50
127.0284887689633
 51
180.00000500895629
  0
ARC
  5
2056
  8
AM_BOR
 10
203.53731756996689
 20
17.793010290175818
 30
0.0
 40
0.6669712537016159
 50
0.0
 51
74.714823568866152
  0
ARC
  5
2057
  8
AM_BOR
 10
200.03571849797169
 20
14.197800355103389
 30
0.0
 40
0.6669712537016159
 50
180.00000500895629
 51
256.4857883914604
  0
LINE
  5
2058
  8
AM_BOR
 10
210.95737277733619
 20
15.993445664994679
 30
0.0
 11
210.9224749062999
 21
16.211434571273589
 31
0.0
  0
LINE
  5
2059
  8
AM_BOR
 10
210.92247490629941
 20
16.211434571273411
 30
0.0
 11
210.8180468870608
 21
16.42776445035037
 31
0.0
  0
LINE
  5
205A
  8
AM_BOR
 10
210.8180468870604
 20
16.42776445035037
 30
0.0
 11
210.64488347990149
 21
16.640788901221669
 31
0.0
  0
LINE
  5
205B
  8
AM_BOR
 10
210.6448834799013
 20
16.640788901221619
 30
0.0
 11
210.40430256290981
 21
16.848886679188759
 31
0.0
  0
LINE
  5
205C
  8
AM_BOR
 10
210.40430256290949
 20
16.848886679189
 30
0.0
 11
210.0981351021297
 21
17.050474034508689
 31
0.0
  0
LINE
  5
205D
  8
AM_BOR
 10
210.09813510212999
 20
17.05047403450855
 30
0.0
 11
209.7287112168076
 21
17.244016765685139
 31
0.0
  0
LINE
  5
205E
  8
AM_BOR
 10
209.72871121680711
 20
17.24401676568521
 30
0.0
 11
209.29884244577369
 21
17.428041895669988
 31
0.0
  0
LINE
  5
205F
  8
AM_BOR
 10
209.29884244577369
 20
17.428041895670081
 30
0.0
 11
208.81180034993889
 21
17.601148882106369
 31
0.0
  0
LINE
  5
2060
  8
AM_BOR
 10
208.81180034993889
 20
17.60114888210644
 30
0.0
 11
208.27129161373591
 21
17.76202027630297
 31
0.0
  0
LINE
  5
2061
  8
AM_BOR
 10
208.27129161373611
 20
17.76202027630309
 30
0.0
 11
207.68142983501551
 21
17.909431749813081
 31
0.0
  0
LINE
  5
2062
  8
AM_BOR
 10
207.68142983501531
 20
17.90943174981297
 30
0.0
 11
207.04670421808169
 21
18.042261412313358
 31
0.0
  0
LINE
  5
2063
  8
AM_BOR
 10
207.04670421808169
 20
18.04226141231344
 30
0.0
 11
206.37194540813729
 21
18.15949834986797
 31
0.0
  0
LINE
  5
2064
  8
AM_BOR
 10
206.37194540813749
 20
18.159498349867881
 30
0.0
 11
205.66228872715681
 21
18.260250318592298
 31
0.0
  0
LINE
  5
2065
  8
AM_BOR
 10
205.66228872715661
 20
18.260250318592369
 30
0.0
 11
205.02242374599979
 21
18.33253416039674
 31
0.0
  0
LINE
  5
2066
  8
AM_BOR
 10
205.02242374599939
 20
18.332534160396779
 30
0.0
 11
204.92313509098369
 21
18.343750535168819
 31
0.0
  0
LINE
  5
2067
  8
AM_BOR
 10
204.92313509098369
 20
18.343750535168748
 30
0.0
 11
204.16010990510409
 21
18.409363512530259
 31
0.0
  0
LINE
  5
2068
  8
AM_BOR
 10
204.1601099051048
 20
18.409363512530259
 30
0.0
 11
203.71314686010501
 21
18.436387872932471
 31
0.0
  0
LINE
  5
2069
  8
AM_BOR
 10
200.43756462039249
 20
18.465334570955569
 30
0.0
 11
200.19401582596791
 21
18.45658989630088
 31
0.0
  0
LINE
  5
206A
  8
AM_BOR
 10
200.19401582596799
 20
18.456589896300901
 30
0.0
 11
199.41292617277259
 21
18.409363512530309
 31
0.0
  0
LINE
  5
206B
  8
AM_BOR
 10
199.41292617277259
 20
18.409363512530248
 30
0.0
 11
198.64990098689299
 21
18.343750535168759
 31
0.0
  0
LINE
  5
206C
  8
AM_BOR
 10
198.5506123731563
 20
18.332534165059979
 30
0.0
 11
197.9107473507209
 21
18.260250318592469
 31
0.0
  0
LINE
  5
206D
  8
AM_BOR
 10
198.64990098689299
 20
18.343750535168791
 30
0.0
 11
198.5506123731563
 21
18.332534165059919
 31
0.0
  0
LINE
  5
206E
  8
AM_BOR
 10
197.91074735072121
 20
18.26025031859243
 30
0.0
 11
197.20109066974049
 21
18.159498349868041
 31
0.0
  0
LINE
  5
206F
  8
AM_BOR
 10
197.20109066974041
 20
18.159498349868091
 30
0.0
 11
196.52633185979579
 21
18.042261412313529
 31
0.0
  0
LINE
  5
2070
  8
AM_BOR
 10
196.5263318597959
 20
18.042261412313589
 30
0.0
 11
195.89160624286239
 21
17.909431749813219
 31
0.0
  0
LINE
  5
2071
  8
AM_BOR
 10
195.89160624286171
 20
17.90943174981302
 30
0.0
 11
195.30174446414119
 21
17.762020276303058
 31
0.0
  0
LINE
  5
2072
  8
AM_BOR
 10
195.301744464141
 20
17.762020276303161
 30
0.0
 11
194.76123572793779
 21
17.60114888210661
 31
0.0
  0
LINE
  5
2073
  8
AM_BOR
 10
194.76123572793779
 20
17.60114888210656
 30
0.0
 11
194.27419363210299
 21
17.428041895670152
 31
0.0
  0
LINE
  5
2074
  8
AM_BOR
 10
194.27419363210339
 20
17.428041895670152
 30
0.0
 11
193.84432486106959
 21
17.244016765685259
 31
0.0
  0
LINE
  5
2075
  8
AM_BOR
 10
193.84432486106959
 20
17.24401676568521
 30
0.0
 11
193.4749009757472
 21
17.05047403450865
 31
0.0
  0
LINE
  5
2076
  8
AM_BOR
 10
193.4749009757472
 20
17.050474034508671
 30
0.0
 11
193.16873351496719
 21
16.848886679188929
 31
0.0
  0
LINE
  5
2077
  8
AM_BOR
 10
193.1687335149673
 20
16.848886679188951
 30
0.0
 11
192.92815259797499
 21
16.640788901221619
 31
0.0
  0
LINE
  5
2078
  8
AM_BOR
 10
192.9281525979753
 20
16.640788901221811
 30
0.0
 11
192.75498919081639
 21
16.42776445035042
 31
0.0
  0
LINE
  5
2079
  8
AM_BOR
 10
192.75498919081639
 20
16.427764450350349
 30
0.0
 11
192.65056117157769
 21
16.211434571273479
 31
0.0
  0
LINE
  5
207A
  8
AM_BOR
 10
192.65056117157789
 20
16.211434571273731
 30
0.0
 11
192.61566330054151
 21
15.993445664994679
 31
0.0
  0
LINE
  5
207B
  8
AM_BOR
 10
192.61566330054069
 20
15.99344566499464
 30
0.0
 11
192.65056117157721
 21
15.775456758715791
 31
0.0
  0
LINE
  5
207C
  8
AM_BOR
 10
192.65056117157769
 20
15.775456758715929
 30
0.0
 11
192.7549891908163
 21
15.55912687963913
 31
0.0
  0
LINE
  5
207D
  8
AM_BOR
 10
192.75498919081639
 20
15.559126879639029
 30
0.0
 11
192.9281525979753
 21
15.34610242876764
 31
0.0
  0
LINE
  5
207E
  8
AM_BOR
 10
192.9281525979751
 20
15.34610242876769
 30
0.0
 11
193.16873351496719
 21
15.1380046508005
 31
0.0
  0
LINE
  5
207F
  8
AM_BOR
 10
193.1687335149669
 20
15.1380046508005
 30
0.0
 11
193.47490097574689
 21
14.93641729548081
 31
0.0
  0
LINE
  5
2080
  8
AM_BOR
 10
193.47490097574729
 20
14.936417295480711
 30
0.0
 11
193.84432486106959
 21
14.742874564304079
 31
0.0
  0
LINE
  5
2081
  8
AM_BOR
 10
193.84432486106951
 20
14.74287456430417
 30
0.0
 11
194.27419363210271
 21
14.558849434319351
 31
0.0
  0
LINE
  5
2082
  8
AM_BOR
 10
194.27419363210319
 20
14.558849434319439
 30
0.0
 11
194.7612357279379
 21
14.38574244788296
 31
0.0
  0
LINE
  5
2083
  8
AM_BOR
 10
194.76123572793779
 20
14.38574244788277
 30
0.0
 11
195.301744464141
 21
14.22487105368617
 31
0.0
  0
LINE
  5
2084
  8
AM_BOR
 10
195.301744464141
 20
14.224871053686311
 30
0.0
 11
195.891606242862
 21
14.077459580176351
 31
0.0
  0
LINE
  5
2085
  8
AM_BOR
 10
195.89160624286191
 20
14.077459580176219
 30
0.0
 11
196.52633185979579
 21
13.94462991767579
 31
0.0
  0
LINE
  5
2086
  8
AM_BOR
 10
196.52633185979539
 20
13.944629917675821
 30
0.0
 11
197.2010906697397
 21
13.827392980121321
 31
0.0
  0
LINE
  5
2087
  8
AM_BOR
 10
197.20109066974049
 20
13.82739298012133
 30
0.0
 11
197.9107473507209
 21
13.726641011397049
 31
0.0
  0
LINE
  5
2088
  8
AM_BOR
 10
197.9107473507205
 20
13.72664101139711
 30
0.0
 11
198.5412166771807
 21
13.655418571666219
 31
0.0
  0
LINE
  5
2089
  8
AM_BOR
 10
198.54121667717999
 20
13.65541857166625
 30
0.0
 11
198.64990098689259
 21
13.643140794820731
 31
0.0
  0
LINE
  5
208A
  8
AM_BOR
 10
198.6499009868929
 20
13.643140794820679
 30
0.0
 11
199.41292617277259
 21
13.57752781745919
 31
0.0
  0
LINE
  5
208B
  8
AM_BOR
 10
199.41292617277259
 20
13.577527817459201
 30
0.0
 11
199.8798563250744
 21
13.54929620220682
 31
0.0
  0
LINE
  5
208C
  8
AM_BOR
 10
203.0271328720325
 20
13.51766683756999
 30
0.0
 11
203.37902025190911
 21
13.530301433688649
 31
0.0
  0
LINE
  5
208D
  8
AM_BOR
 10
203.3790202519092
 20
13.530301433688599
 30
0.0
 11
204.16010990510441
 21
13.57752781745919
 31
0.0
  0
LINE
  5
208E
  8
AM_BOR
 10
204.70451727388399
 20
13.624341722195579
 30
0.0
 11
204.9231350909844
 21
13.64314079482075
 31
0.0
  0
LINE
  5
208F
  8
AM_BOR
 10
204.16010990510441
 20
13.57752781745917
 30
0.0
 11
204.70451727388379
 21
13.62434172219551
 31
0.0
  0
LINE
  5
2090
  8
AM_BOR
 10
204.92313509098409
 20
13.643140794820759
 30
0.0
 11
205.66228872715669
 21
13.726641011397151
 31
0.0
  0
LINE
  5
2091
  8
AM_BOR
 10
205.66228872715661
 20
13.72664101139711
 30
0.0
 11
206.37194540813709
 21
13.827392980121401
 31
0.0
  0
LINE
  5
2092
  8
AM_BOR
 10
206.37194540813749
 20
13.82739298012145
 30
0.0
 11
207.04670421808191
 21
13.94462991767594
 31
0.0
  0
LINE
  5
2093
  8
AM_BOR
 10
207.04670421808169
 20
13.94462991767597
 30
0.0
 11
207.68142983501559
 21
14.07745958017637
 31
0.0
  0
LINE
  5
2094
  8
AM_BOR
 10
207.68142983501551
 20
14.07745958017629
 30
0.0
 11
208.27129161373611
 21
14.22487105368625
 31
0.0
  0
LINE
  5
2095
  8
AM_BOR
 10
208.2712916137362
 20
14.224871053686289
 30
0.0
 11
208.81180034993929
 21
14.38574244788289
 31
0.0
  0
LINE
  5
2096
  8
AM_BOR
 10
208.81180034993929
 20
14.385742447882921
 30
0.0
 11
209.29884244577411
 21
14.558849434319351
 31
0.0
  0
LINE
  5
2097
  8
AM_BOR
 10
209.298842445774
 20
14.55884943431932
 30
0.0
 11
209.72871121680751
 21
14.74287456430422
 31
0.0
  0
LINE
  5
2098
  8
AM_BOR
 10
209.72871121680711
 20
14.742874564304151
 30
0.0
 11
210.0981351021297
 21
14.93641729548083
 31
0.0
  0
LINE
  5
2099
  8
AM_BOR
 10
210.09813510212999
 20
14.93641729548081
 30
0.0
 11
210.40430256290989
 21
15.13800465080036
 31
0.0
  0
LINE
  5
209A
  8
AM_BOR
 10
210.40430256291
 20
15.13800465080055
 30
0.0
 11
210.64488347990201
 21
15.346102428767731
 31
0.0
  0
LINE
  5
209B
  8
AM_BOR
 10
210.64488347990169
 20
15.34610242876783
 30
0.0
 11
210.8180468870608
 21
15.559126879639029
 31
0.0
  0
LINE
  5
209C
  8
AM_BOR
 10
210.81804688706069
 20
15.559126879639059
 30
0.0
 11
210.92247490629899
 21
15.77545675871586
 31
0.0
  0
LINE
  5
209D
  8
AM_BOR
 10
210.92247490629981
 20
15.775456758715791
 30
0.0
 11
210.95737277733619
 21
15.993445664994621
 31
0.0
  0
LINE
  5
209E
  8
AM_BOR
 10
199.10514248704791
 20
18.382897015254191
 30
0.0
 11
203.92474251077411
 21
13.563296991527499
 31
0.0
  0
ARC
  5
209F
  8
AM_BOR
 10
205.2047457141602
 20
14.181128845625549
 30
0.0
 40
0.5002284402762121
 50
180.0
 51
244.5184856857075
  0
LINE
  5
20A0
  8
AM_BOR
 10
199.36521928176651
 20
18.405261169360589
 30
0.0
 11
204.19035209062989
 21
13.58012836049622
 31
0.0
  0
LINE
  5
20A1
  8
AM_BOR
 10
199.630408435547
 20
18.422512964405719
 30
0.0
 11
204.450428885349
 21
13.602492514602771
 31
0.0
  0
LINE
  5
20A2
  8
AM_BOR
 10
199.8967460324557
 20
18.438616316322719
 30
0.0
 11
204.70776895023289
 21
13.62759339854461
 31
0.0
  0
LINE
  5
20A3
  8
AM_BOR
 10
200.16308362936431
 20
18.454719668239761
 30
0.0
 11
204.9488987968831
 21
13.66890450072008
 31
0.0
  0
LINE
  5
20A4
  8
AM_BOR
 10
198.8450656923284
 20
18.36053286114759
 30
0.0
 11
203.6584049138651
 21
13.547193639610409
 31
0.0
  0
LINE
  5
20A5
  8
AM_BOR
 10
198.7943784573331
 20
18.12877914731807
 30
0.0
 11
203.39206731695711
 21
13.53109028769336
 31
0.0
  0
LINE
  5
20A6
  8
AM_BOR
 10
199.01830573664321
 20
18.375429872827009
 30
0.0
 11
199.01830573664321
 21
13.61146145716244
 31
0.0
  0
LINE
  5
20A7
  8
AM_BOR
 10
199.2180216468426
 20
18.39260355953768
 30
0.0
 11
199.2180216468426
 21
13.594287770451791
 31
0.0
  0
LINE
  5
20A8
  8
AM_BOR
 10
204.55473034123381
 20
18.375429872826999
 30
0.0
 11
204.55473034123381
 21
13.61146145716245
 31
0.0
  0
LINE
  5
20A9
  8
AM_BOR
 10
204.35501443103459
 20
18.39260355953764
 30
0.0
 11
204.35501443103459
 21
13.594287770451791
 31
0.0
  0
LINE
  5
20AA
  8
AM_BOR
 62
     4
 10
-0.0000001316067255
 20
15.000000173111291
 30
0.0
 11
190.49999986839319
 21
15.000000173111291
 31
0.0
  0
LINE
  5
20AB
  8
AM_BOR
 62
     4
 10
276.49999986839327
 20
28.000000173111289
 30
0.0
 11
276.49999986839327
 21
0.000000173111296
 31
0.0
  0
LINE
  5
20AC
  8
AM_BOR
 62
     4
 10
-0.0000001316067255
 20
15.000000173111291
 30
0.0
 11
-0.0000001316067255
 21
0.000000173111296
 31
0.0
  0
LINE
  5
20AD
  8
AM_BOR
 62
     4
 10
-0.0000001316067255
 20
28.000000173111289
 30
0.0
 11
276.49999986839327
 21
28.000000173111289
 31
0.0
  0
LINE
  5
20AE
  8
AM_BOR
 62
     4
 10
15.999999868393269
 20
15.000000173111291
 30
0.0
 11
15.999999868393269
 21
0.000000173111296
 31
0.0
  0
TEXT
  5
20AF
  8
AM_BOR
 62
     4
 10
215.17999986839331
 20
10.000000173111291
 30
0.0
 40
1.5
  1
NAKANISHI　INDUSTRIAL CO., LTD.
 41
1.5
  0
TEXT
  5
20B0
  8
AM_BOR
 62
     3
 10
213.19999986839329
 20
13.500000173111291
 30
0.0
 40
5.5
  1
中西産業株式会社
 41
1.1999999999999991
  0
TEXT
  5
20B1
  8
AM_BOR
 62
     4
 10
196.192787937406
 20
10.000000173111291
 30
0.0
 40
1.5
  1
Nakanishi
 41
1.1999999999999991
  0
TEXT
  5
20B2
  8
AM_BOR
 62
     7
 10
98.104999768257457
 20
15.650000185032219
 30
0.0
 40
1.0
  1
FINISH
 41
1.6000000000000001
  0
TEXT
  5
20B3
  8
AM_BOR
 62
     7
 10
96.979999708652798
 20
17.700000220795008
 30
0.0
 40
2.7999999999999989
  1
仕　　上
  0
TEXT
  5
20B4
  8
AM_BOR
 62
     7
 10
3.1549997801784002
 20
15.650000185032219
 30
0.0
 40
1.0
  1
MATERIAL
 41
1.6000000000000001
  0
TEXT
  5
20B5
  8
AM_BOR
 62
     7
 10
1.729999708652826
 20
17.700000220795008
 30
0.0
 40
2.7999999999999989
  1
材　　質
  0
LINE
  5
20B6
  8
AM_BOR
 62
     4
 10
190.49999986839319
 20
28.000000173111289
 30
0.0
 11
190.49999986839319
 21
0.000000173111296
 31
0.0
  0
LINE
  5
20B7
  8
AM_BOR
 62
     4
 10
-0.0000001316067255
 20
28.000000173111289
 30
0.0
 11
-0.0000001316067255
 21
15.000000173111291
 31
0.0
  0
LINE
  5
20B8
  8
AM_BOR
 62
     4
 10
-0.0000001316067255
 20
21.500000173111289
 30
0.0
 11
190.49999986839319
 21
21.500000173111289
 31
0.0
  0
LINE
  5
20B9
  8
AM_BOR
 62
     4
 10
15.999999868393269
 20
28.000000173111289
 30
0.0
 11
15.999999868393269
 21
15.000000173111291
 31
0.0
  0
TEXT
  5
20BA
  8
AM_BOR
 62
     7
 10
98.104999768257457
 20
22.150000185032219
 30
0.0
 40
1.0
  1
ART. NO.
 41
1.6000000000000001
  0
TEXT
  5
20BB
  8
AM_BOR
 62
     7
 10
96.979999708652684
 20
24.200000220795008
 30
0.0
 40
2.7999999999999989
  1
品　　番
  0
TEXT
  5
20BC
  8
AM_BOR
 62
     7
 10
3.1549997801784002
 20
22.150000185032219
 30
0.0
 40
1.0
  1
ARTICLE
 41
1.6000000000000001
  0
TEXT
  5
20BD
  8
AM_BOR
 62
     7
 10
1.7299997086527119
 20
24.200000220795008
 30
0.0
 40
2.7999999999999989
  1
品　　名
  0
LINE
  5
20BE
  8
AM_BOR
 62
     4
 10
-0.0000001316067255
 20
15.000000173111291
 30
0.0
 11
-0.0000001316067255
 21
0.0000001731112924
 31
0.0
  0
LINE
  5
20BF
  8
AM_BOR
 62
     4
 10
95.249999868393246
 20
28.000000173111289
 30
0.0
 11
95.249999868393246
 21
0.000000173111296
 31
0.0
  0
TEXT
  5
20C0
  8
AM_BOR
 62
     7
 10
3.1549997801784002
 20
9.1500001850322192
 30
0.0
 40
1.0
  1
REMARKS
 41
1.6000000000000001
  0
TEXT
  5
20C1
  8
AM_BOR
 62
     7
 10
1.7299997086527119
 20
11.20000022079501
 30
0.0
 40
2.7999999999999989
  1
備　　考
  0
LINE
  5
20C2
  8
AM_BOR
 62
     4
 10
111.2499998683932
 20
28.000000173111289
 30
0.0
 11
111.2499998683932
 21
0.000000173111296
 31
0.0
  0
LINE
  5
20C3
  8
AM_BOR
 62
     4
 10
-0.0000001316067255
 20
0.000000173111296
 30
0.0
 11
276.49999986839327
 21
0.000000173111296
 31
0.0
  0
TEXT
  5
20C4
  8
AM_BOR
 62
     7
 10
98.404999780178386
 20
9.1500001850322157
 30
0.0
 40
1.0
  1
SETS
 41
1.6000000000000001
  0
TEXT
  5
20C5
  8
AM_BOR
 62
     7
 10
96.979999708652684
 20
11.20000022079501
 30
0.0
 40
2.7999999999999989
  1
セット品
  0
ATTDEF
  5
20C6
  8
AM_BOR
 62
     7
 10
114.3107095753831
 20
0.5000001731112853
 30
0.0
 40
3.0
  1

 11
114.3107095753831
 21
2.0000001731112849
 31
0.0
  3
セット
  2
SETS｛20｝
 70
     0
 74
     2
1001
ACADANNOTATIVE
1000
AnnotativeData
1002
{
1070
     1
1070
     0
1002
}
1001
AcDbAttr
1070
     0
1070
     1
  0
ATTDEF
  5
20CA
  8
AM_BOR
 62
     7
 10
19.060709575383161
 20
0.5000001731112889
 30
0.0
 40
3.0
  1

 11
19.060709575383161
 21
2.000000173111288
 31
0.0
  3
備　　考
  2
REMARKS｛20｝
 70
     0
 74
     2
1001
ACADANNOTATIVE
1000
AnnotativeData
1002
{
1070
     1
1070
     0
1002
}
1001
AcDbAttr
1070
     0
1070
     1
  0
ATTDEF
  5
20CE
  8
AM_BOR
 62
     7
 10
114.3107095753831
 20
5.5000001731112853
 30
0.0
 40
3.0
  1

 11
114.3107095753831
 21
7.0000001731112853
 31
0.0
  3
セット
  2
SETS｛20｝
 70
     0
 74
     2
1001
ACADANNOTATIVE
1000
AnnotativeData
1002
{
1070
     1
1070
     0
1002
}
1001
AcDbAttr
1070
     0
1070
     1
  0
ATTDEF
  5
20D2
  8
AM_BOR
 62
     7
 10
19.060709575383161
 20
5.500000173111288
 30
0.0
 40
3.0
  1

 11
19.060709575383161
 21
7.000000173111288
 31
0.0
  3
備　　考
  2
REMARKS｛20｝
 70
     0
 74
     2
1001
ACADANNOTATIVE
1000
AnnotativeData
1002
{
1070
     1
1070
     0
1002
}
1001
AcDbAttr
1070
     0
1070
     1
  0
ATTDEF
  5
20D6
  8
AM_BOR
 62
     7
 10
114.3107095753831
 20
10.50000017311128
 30
0.0
 40
3.0
  1

 11
114.3107095753831
 21
12.00000017311128
 31
0.0
  3
セット
  2
SETS｛20｝
 70
     0
 74
     2
1001
ACADANNOTATIVE
1000
AnnotativeData
1002
{
1070
     1
1070
     0
1002
}
1001
AcDbAttr
1070
     0
1070
     1
  0
ATTDEF
  5
20DA
  8
AM_BOR
 62
     7
 10
19.060709575383161
 20
10.500000173111291
 30
0.0
 40
3.0
  1

 11
19.060709575383161
 21
12.000000173111291
 31
0.0
  3
備　　考
  2
REMARKS｛20｝
 70
     0
 74
     2
1001
ACADANNOTATIVE
1000
AnnotativeData
1002
{
1070
     1
1070
     0
1002
}
1001
AcDbAttr
1070
     0
1070
     1
  0
ATTDEF
  5
20DE
  8
AM_BOR
 62
     7
 10
114.2499998683932
 20
23.500000173111289
 30
0.0
 40
3.0
  1

 11
114.2499998683932
 21
25.000000173111289
 31
0.0
  3
品    番
  2
ART_NO｛20｝
 70
     0
 74
     2
1001
ACADANNOTATIVE
1000
AnnotativeData
1002
{
1070
     1
1070
     0
1002
}
1001
AcDbAttr
1070
     0
1070
     1
  0
ATTDEF
  5
20E2
  8
AM_BOR
 62
     7
 10
18.999999868393271
 20
23.500000173111289
 30
0.0
 40
3.0
  1

 11
18.999999868393271
 21
25.000000173111289
 31
0.0
  3
品    名
  2
ARTICLE｛20｝
 70
     0
 74
     2
1001
ACADANNOTATIVE
1000
AnnotativeData
1002
{
1070
     1
1070
     0
1002
}
1001
AcDbAttr
1070
     0
1070
     1
  0
ATTDEF
  5
20E6
  8
AM_BOR
 62
     7
 10
114.2499998683932
 20
17.000000173111289
 30
0.0
 40
3.0
  1

 11
114.2499998683932
 21
18.500000173111289
 31
0.0
  3
仕上
  2
FINISH｛20｝
 70
     0
 74
     2
1001
ACADANNOTATIVE
1000
AnnotativeData
1002
{
1070
     1
1070
     0
1002
}
1001
AcDbAttr
1070
     0
1070
     1
  0
ATTDEF
  5
20EA
  8
AM_BOR
 62
     7
 10
18.999999868393271
 20
17.000000173111289
 30
0.0
 40
3.0
  1

 11
18.999999868393271
 21
18.500000173111289
 31
0.0
  3
材　　質
  2
MATERIAK｛20｝
 70
     0
 74
     2
1001
ACADANNOTATIVE
1000
AnnotativeData
1002
{
1070
     1
1070
     0
1002
}
1001
AcDbAttr
1070
     0
1070
     1
  0
ENDBLK
  5
20F1
  8
0
  0
BLOCK
  8
0
  2
_ACMFILLEDHALF
 70
     0
 10
0.0
 20
0.0
 30
0.0
  3
_ACMFILLEDHALF
  1

  0
TRACE
  5
29C3
  8
0
 62
     0
 10
-0.8
 20
0.0
 30
0.0
 11
-1.0
 21
0.166666666
 31
0.0
 12
0.0
 22
0.0
 32
0.0
 13
0.0
 23
0.0
 33
0.0
  0
LINE
  5
29C4
  8
0
 62
     0
 10
-1.0
 20
0.0
 30
0.0
 11
-0.8
 21
0.0
 31
0.0
  0
ENDBLK
  5
29C2
  8
0
  0
BLOCK
  8
0
  2
_ACMFILLED
 70
     0
 10
0.0
 20
0.0
 30
0.0
  3
_ACMFILLED
  1

  0
TRACE
  5
29CF
  8
0
 62
     0
 10
-1.0
 20
-0.166666666
 30
0.0
 11
-1.0
 21
0.166666666
 31
0.0
 12
0.0
 22
0.0
 32
0.0
 13
0.0
 23
0.0
 33
0.0
  0
ENDBLK
  5
29CE
  8
0
  0
BLOCK
  8
0
  2
_ACMOPEN15
 70
     0
 10
0.0
 20
0.0
 30
0.0
  3
_ACMOPEN15
  1

  0
LINE
  5
29D9
  8
0
 62
     0
 10
-1.0
 20
0.0
 30
0.0
 11
0.0
 21
0.0
 31
0.0
  0
LINE
  5
29DA
  8
0
 62
     0
 10
-1.0
 20
-0.131652497
 30
0.0
 11
0.0
 21
0.0
 31
0.0
  0
LINE
  5
29DB
  8
0
 62
     0
 10
0.0
 20
0.0
 30
0.0
 11
-1.0
 21
0.131652497
 31
0.0
  0
ENDBLK
  5
29D8
  8
0
  0
BLOCK
  8
0
  2
_ACMFILLED15
 70
     0
 10
0.0
 20
0.0
 30
0.0
  3
_ACMFILLED15
  1

  0
TRACE
  5
29E7
  8
0
 62
     0
 10
-1.0
 20
-0.131652497
 30
0.0
 11
-1.0
 21
0.131652497
 31
0.0
 12
0.0
 22
0.0
 32
0.0
 13
0.0
 23
0.0
 33
0.0
  0
ENDBLK
  5
29E6
  8
0
  0
BLOCK
  8
0
  2
TOP__3
 70
     0
 10
2176.7585318128949
 20
65.986354425192701
 30
0.0
  3
TOP__3
  1

  0
INSERT
  5
2A44
  8
0
  2
*U30
 10
0.0
 20
0.0
 30
0.0
  0
LINE
  5
2A45
  8
1
  6
CONTINUOUS
 62
     3
 10
2107.7396392993901
 20
81.789491810457278
 30
0.0
 11
2114.7396392993901
 21
81.789491810457278
 31
0.0
  0
LINE
  5
2A46
  8
1
  6
CONTINUOUS
 62
     3
 10
2114.7396392993901
 20
81.789491810457278
 30
0.0
 11
2114.7396392993901
 21
74.789491810457292
 31
0.0
  0
LINE
  5
2A47
  8
1
  6
CONTINUOUS
 62
     3
 10
2114.7396392993901
 20
74.789491810457292
 30
0.0
 11
2107.7396392993901
 21
74.789491810457292
 31
0.0
  0
LINE
  5
2A48
  8
1
  6
CONTINUOUS
 62
     3
 10
2107.7396392993901
 20
74.789491810457292
 30
0.0
 11
2107.7396392993901
 21
81.789491810457278
 31
0.0
  0
ENDBLK
  5
2A49
  8
0
  0
BLOCK
  8
0
  2
*U16
 70
     1
 10
0.0
 20
0.0
 30
0.0
  3
*U16
  1

  0
TEXT
  5
2C34
  8
2
 62
     3
 10
5.5854113860601711
 20
7.3088164636679611
 30
0.0
 40
3.2000000000000002
  1
材  料
 41
0.6230000000000001
  7
CONVERTER_3
  0
ENDBLK
  5
2C36
  8
0
  0
BLOCK
  8
0
  2
*U17
 70
     1
 10
0.0
 20
0.0
 30
0.0
  3
*U17
  1

  0
TEXT
  5
2C38
  8
2
 62
     3
 10
17.934399143219199
 20
7.3634283063504302
 30
0.0
 40
3.2000000000000002
  1
１組分数
 41
0.6230000000000001
  7
CONVERTER_3
  0
ENDBLK
  5
2C3A
  8
0
  0
BLOCK
  8
0
  2
*U18
 70
     1
 10
0.0
 20
0.0
 30
0.0
  3
*U18
  1

  0
TEXT
  5
2C3C
  8
2
 62
     3
 10
33.343327143219163
 20
7.4274283063504276
 30
0.0
 40
3.2000000000000002
  1
図 面 番 号
 41
0.6230000000000001
  7
CONVERTER_3
  0
ENDBLK
  5
2C3E
  8
0
  0
BLOCK
  8
0
  2
*U19
 70
     1
 10
0.0
 20
0.0
 30
0.0
  3
*U19
  1

  0
TEXT
  5
2C40
  8
2
 62
     3
 10
53.791903143219152
 20
7.2719997349218559
 30
0.0
 40
3.2000000000000002
  1
重 量
 41
0.6230000000000001
  7
CONVERTER_3
  0
ENDBLK
  5
2C42
  8
0
  0
BLOCK
  8
0
  2
*U20
 70
     1
 10
0.0
 20
0.0
 30
0.0
  3
*U20
  1

  0
TEXT
  5
2C44
  8
2
 62
     3
 10
84.174943143219195
 20
7.354285449207576
 30
0.0
 40
3.19999999999999
  1
記      事
 41
0.6230000000000001
  7
CONVERTER_3
  0
ENDBLK
  5
2C46
  8
0
  0
BLOCK
  8
0
  2
*U21
 70
     1
 10
0.0
 20
0.0
 30
0.0
  3
*U21
  1

  0
TEXT
  5
2C48
  8
1
 62
     3
 10
6.8147425239991311
 20
1.498383732495165
 30
0.0
 40
3.2000000000000002
  1
ABS
 41
0.63
  7
CONVERTER_1
  0
ENDBLK
  5
2C4A
  8
0
  0
BLOCK
  8
0
  2
*U22
 70
     1
 10
0.0
 20
0.0
 30
0.0
  3
*U22
  1

  0
TEXT
  5
2C4C
  8
1
 62
     3
 10
85.612249524509608
 20
1.1905023075474039
 30
0.0
 40
3.2000000000000002
  1
ブラック
 41
0.534
  7
CONVERTER_8
  0
ENDBLK
  5
2C4E
  8
0
  0
BLOCK
  8
0
  2
*U23
 70
     1
 10
0.0
 20
0.0
 30
0.0
  3
*U23
  1

  0
TEXT
  5
2C50
  8
2
 62
     3
 10
172.04241224322629
 20
196.4295167286038
 30
0.0
 40
3.2000000000000002
  1
材  料
 41
0.6230000000000001
  7
CONVERTER_3
  0
ENDBLK
  5
2C52
  8
0
  0
BLOCK
  8
0
  2
*U24
 70
     1
 10
0.0
 20
0.0
 30
0.0
  3
*U24
  1

  0
TEXT
  5
2C54
  8
2
 62
     3
 10
184.39140000038529
 20
196.48412857128619
 30
0.0
 40
3.2000000000000002
  1
１組分数
 41
0.6230000000000001
  7
CONVERTER_3
  0
ENDBLK
  5
2C56
  8
0
  0
BLOCK
  8
0
  2
*U25
 70
     1
 10
0.0
 20
0.0
 30
0.0
  3
*U25
  1

  0
TEXT
  5
2C58
  8
2
 62
     3
 10
199.80032800038529
 20
196.54812857128621
 30
0.0
 40
3.2000000000000002
  1
図 面 番 号
 41
0.6230000000000001
  7
CONVERTER_3
  0
ENDBLK
  5
2C5A
  8
0
  0
BLOCK
  8
0
  2
*U26
 70
     1
 10
0.0
 20
0.0
 30
0.0
  3
*U26
  1

  0
TEXT
  5
2C5C
  8
2
 62
     3
 10
220.24890400038529
 20
196.39269999985771
 30
0.0
 40
3.2000000000000002
  1
重 量
 41
0.6230000000000001
  7
CONVERTER_3
  0
ENDBLK
  5
2C5E
  8
0
  0
BLOCK
  8
0
  2
*U27
 70
     1
 10
0.0
 20
0.0
 30
0.0
  3
*U27
  1

  0
TEXT
  5
2C60
  8
2
 62
     3
 10
250.63194400038529
 20
196.4749857141434
 30
0.0
 40
3.19999999999999
  1
記      事
 41
0.6230000000000001
  7
CONVERTER_3
  0
ENDBLK
  5
2C62
  8
0
  0
BLOCK
  8
0
  2
*U28
 70
     1
 10
0.0
 20
0.0
 30
0.0
  3
*U28
  1

  0
TEXT
  5
2C64
  8
1
 62
     3
 10
173.27174338116521
 20
190.61908399743101
 30
0.0
 40
3.2000000000000002
  1
ABS
 41
0.63
  7
CONVERTER_1
  0
ENDBLK
  5
2C66
  8
0
  0
BLOCK
  8
0
  2
*U29
 70
     1
 10
0.0
 20
0.0
 30
0.0
  3
*U29
  1

  0
TEXT
  5
2C68
  8
1
 62
     3
 10
252.06925038167569
 20
190.31120257248321
 30
0.0
 40
3.2000000000000002
  1
ブラック
 41
0.534
  7
CONVERTER_8
  0
ENDBLK
  5
2C6A
  8
0
  0
BLOCK
  8
0
  2
*U30
 70
     1
 10
0.0
 20
0.0
 30
0.0
  3
*U30
  1

  0
TEXT
  5
2C6C
  8
1
 62
     3
 10
2108.6896392993899
 20
76.289491810457292
 30
0.0
 40
4.0
  1
SD
 41
0.7650000000000001
  7
CONVERTER_7
  0
ENDBLK
  5
2C6E
  8
0
  0
BLOCK
  8
0
  2
*U31
 70
     1
 10
0.0
 20
0.0
 30
0.0
  3
*U31
  1

  0
POLYLINE
  5
2C70
  8
1
  6
CONTINUOUS
 62
     2
 66
     1
 10
0.0
 20
0.0
 30
0.0
  0
VERTEX
  5
2C71
  8
1
  6
CONTINUOUS
 62
     2
 10
92.066389817899108
 20
99.175814993947881
 30
0.0
  0
VERTEX
  5
2C72
  8
1
  6
CONTINUOUS
 62
     2
 10
108.9385142020969
 20
59.25983346905906
 30
0.0
  0
VERTEX
  5
2C73
  8
1
  6
CONTINUOUS
 62
     2
 10
124.00907005693711
 20
59.25983346905906
 30
0.0
  0
SEQEND
  5
2C74
  8
1
  6
CONTINUOUS
 62
     2
  0
ENDBLK
  5
2C76
  8
0
  0
BLOCK
  8
0
  2
*U32
 70
     1
 10
0.0
 20
0.0
 30
0.0
  3
*U32
  1

  0
POLYLINE
  5
2C78
  8
1
  6
CONTINUOUS
 62
     2
 66
     1
 10
0.0
 20
0.0
 30
0.0
  0
VERTEX
  5
2C79
  8
1
  6
CONTINUOUS
 62
     2
 10
90.708398187145121
 20
137.09450831191151
 30
0.0
  0
VERTEX
  5
2C7A
  8
1
  6
CONTINUOUS
 62
     2
 10
103.96077151569899
 20
160.0482922378377
 30
0.0
  0
VERTEX
  5
2C7B
  8
1
  6
CONTINUOUS
 62
     2
 10
121.169689968337
 20
160.0482922378377
 30
0.0
  0
SEQEND
  5
2C7C
  8
1
  6
CONTINUOUS
 62
     2
  0
ENDBLK
  5
2C7E
  8
0
  0
BLOCK
  8
0
  2
*U33
 70
     1
 10
0.0
 20
0.0
 30
0.0
  3
*U33
  1

  0
TEXT
  5
2C80
  8
1
 62
     3
 10
107.9883579431669
 20
160.9770179515854
 30
0.0
 40
3.2000000000000002
  1
2-\U+03C66穴
 41
0.6230000000000001
  7
CONVERTER_3
  0
ENDBLK
  5
2C82
  8
0
  0
BLOCK
  8
0
  2
*U34
 70
     1
 10
0.0
 20
0.0
 30
0.0
  3
*U34
  1

  0
TEXT
  5
2C84
  8
1
 62
     3
 10
111.8307027173864
 20
60.434045630938471
 30
0.0
 40
3.2000000000000002
  1
\U+03C617穴
 41
0.6230000000000001
  7
CONVERTER_3
  0
ENDBLK
  5
2C86
  8
0
  0
BLOCK
  8
0
  2
*U35
 70
     1
 10
0.0
 20
0.0
 30
0.0
  3
*U35
  1

  0
SOLID
  5
2C88
  8
1
  6
CONTINUOUS
 62
     2
 10
-9.6778045510195163
 20
154.17045750360941
 30
0.0
 11
-9.8297219542971384
 21
154.16322078576781
 31
0.0
 12
-9.6274720728644763
 22
154.16322078576781
 32
0.0
 13
-9.6274720728644763
 23
154.16322078576781
 33
0.0
210
0.0
220
0.0
230
-1.0
  0
SOLID
  5
2C89
  8
1
  6
CONTINUOUS
 62
     2
 10
-9.6274720728644763
 20
154.16322078576781
 30
0.0
 11
-9.8891121222388811
 21
154.14881288692189
 31
0.0
 12
-9.5272629352709686
 22
154.14881288692189
 32
0.0
 13
-9.5272629352709686
 23
154.14881288692189
 33
0.0
210
0.0
220
0.0
230
-1.0
  0
SOLID
  5
2C8A
  8
1
  6
CONTINUOUS
 62
     2
 10
-9.6274720728644763
 20
154.16322078576781
 30
0.0
 11
-9.8297219542971384
 21
154.16322078576781
 31
0.0
 12
-9.8891121222388811
 22
154.14881288692189
 32
0.0
 13
-9.8891121222388811
 23
154.14881288692189
 33
0.0
210
0.0
220
0.0
230
-1.0
  0
SOLID
  5
2C8B
  8
1
  6
CONTINUOUS
 62
     2
 10
-9.5272629352709686
 20
154.14881288692189
 30
0.0
 11
-9.9775244543324462
 21
154.12736428723471
 31
0.0
 12
-9.465291276356357
 22
154.12736428723471
 32
0.0
 13
-9.465291276356357
 23
154.12736428723471
 33
0.0
210
0.0
220
0.0
230
-1.0
  0
SOLID
  5
2C8C
  8
1
  6
CONTINUOUS
 62
     2
 10
-9.5272629352709686
 20
154.14881288692189
 30
0.0
 11
-9.8891121222388811
 21
154.14881288692189
 31
0.0
 12
-9.9775244543324462
 22
154.12736428723471
 32
0.0
 13
-9.9775244543324462
 23
154.12736428723471
 33
0.0
210
0.0
220
0.0
230
-1.0
  0
SOLID
  5
2C8D
  8
1
  6
CONTINUOUS
 62
     2
 10
-9.465291276356357
 20
154.12736428723471
 30
0.0
 11
-10.03948199050129
 21
154.0990692285466
 31
0.0
 12
-9.3835380732770002
 22
154.0990692285466
 32
0.0
 13
-9.3835380732770002
 23
154.0990692285466
 33
0.0
210
0.0
220
0.0
230
-1.0
  0
SOLID
  5
2C8E
  8
1
  6
CONTINUOUS
 62
     2
 10
-9.465291276356357
 20
154.12736428723471
 30
0.0
 11
-9.9775244543324462
 21
154.12736428723471
 31
0.0
 12
-10.03948199050129
 22
154.0990692285466
 32
0.0
 13
-10.03948199050129
 23
154.0990692285466
 33
0.0
210
0.0
220
0.0
230
-1.0
  0
SOLID
  5
2C8F
  8
1
  6
CONTINUOUS
 62
     2
 10
-9.3835380732770002
 20
154.0990692285466
 30
0.0
 11
-10.11587008367851
 21
154.06418395529059
 31
0.0
 12
-9.3231150075615652
 22
154.06418395529059
 32
0.0
 13
-9.3231150075615652
 23
154.06418395529059
 33
0.0
210
0.0
220
0.0
230
-1.0
  0
SOLID
  5
2C90
  8
1
  6
CONTINUOUS
 62
     2
 10
-9.3835380732770002
 20
154.0990692285466
 30
0.0
 11
-10.03948199050129
 21
154.0990692285466
 31
0.0
 12
-10.11587008367851
 22
154.06418395529059
 32
0.0
 13
-10.11587008367851
 23
154.06418395529059
 33
0.0
210
0.0
220
0.0
230
-1.0
  0
SOLID
  5
2C91
  8
1
  6
CONTINUOUS
 62
     2
 10
-9.3231150075615652
 20
154.06418395529059
 30
0.0
 11
-10.17367060005852
 21
154.02302439390331
 31
0.0
 12
-9.2518245560215515
 22
154.02302439390331
 32
0.0
 13
-9.2518245560215515
 23
154.02302439390331
 33
0.0
210
0.0
220
0.0
230
-1.0
  0
SOLID
  5
2C92
  8
1
  6
CONTINUOUS
 62
     2
 10
-9.3231150075615652
 20
154.06418395529059
 30
0.0
 11
-10.11587008367851
 21
154.06418395529059
 31
0.0
 12
-10.17367060005852
 22
154.02302439390331
 32
0.0
 13
-10.17367060005852
 23
154.02302439390331
 33
0.0
210
0.0
220
0.0
230
-1.0
  0
SOLID
  5
2C93
  8
1
  6
CONTINUOUS
 62
     2
 10
-9.2518245560215515
 20
154.02302439390331
 30
0.0
 11
-10.239758670834741
 21
153.97596329174641
 31
0.0
 12
-9.1975131489084312
 22
153.97596329174641
 32
0.0
 13
-9.1975131489084312
 23
153.97596329174641
 33
0.0
210
0.0
220
0.0
230
-1.0
  0
SOLID
  5
2C94
  8
1
  6
CONTINUOUS
 62
     2
 10
-9.2518245560215515
 20
154.02302439390331
 30
0.0
 11
-10.17367060005852
 21
154.02302439390331
 31
0.0
 12
-10.239758670834741
 22
153.97596329174641
 32
0.0
 13
-10.239758670834741
 23
153.97596329174641
 33
0.0
210
0.0
220
0.0
230
-1.0
  0
SOLID
  5
2C95
  8
1
  6
CONTINUOUS
 62
     2
 10
-9.1975131489084312
 20
153.97596329174641
 30
0.0
 11
-10.28985207501281
 21
153.9234268414487
 31
0.0
 12
-9.1368828531944537
 22
153.9234268414487
 32
0.0
 13
-9.1368828531944537
 23
153.9234268414487
 33
0.0
210
0.0
220
0.0
230
-1.0
  0
SOLID
  5
2C96
  8
1
  6
CONTINUOUS
 62
     2
 10
-9.1975131489084312
 20
153.97596329174641
 30
0.0
 11
-10.239758670834741
 21
153.97596329174641
 31
0.0
 12
-10.28985207501281
 22
153.9234268414487
 32
0.0
 13
-10.28985207501281
 23
153.9234268414487
 33
0.0
210
0.0
220
0.0
230
-1.0
  0
SOLID
  5
2C97
  8
1
  6
CONTINUOUS
 62
     2
 10
-9.1368828531944537
 20
153.9234268414487
 30
0.0
 11
-10.34471255947274
 21
153.8658908212395
 31
0.0
 12
-9.0916360267885086
 22
153.8658908212395
 32
0.0
 13
-9.0916360267885086
 23
153.8658908212395
 33
0.0
210
0.0
220
0.0
230
-1.0
  0
SOLID
  5
2C98
  8
1
  6
CONTINUOUS
 62
     2
 10
-9.1368828531944537
 20
153.9234268414487
 30
0.0
 11
-10.28985207501281
 21
153.9234268414487
 31
0.0
 12
-10.34471255947274
 22
153.8658908212395
 32
0.0
 13
-10.34471255947274
 23
153.8658908212395
 33
0.0
210
0.0
220
0.0
230
-1.0
  0
SOLID
  5
2C99
  8
1
  6
CONTINUOUS
 62
     2
 10
-9.0916360267885086
 20
153.8658908212395
 30
0.0
 11
-10.384566881142201
 21
153.80387628622751
 31
0.0
 12
-9.0428672574135653
 22
153.80387628622751
 32
0.0
 13
-9.0428672574135653
 23
153.80387628622751
 33
0.0
210
0.0
220
0.0
230
-1.0
  0
SOLID
  5
2C9A
  8
1
  6
CONTINUOUS
 62
     2
 10
-9.0916360267885086
 20
153.8658908212395
 30
0.0
 11
-10.34471255947274
 21
153.8658908212395
 31
0.0
 12
-10.384566881142201
 22
153.80387628622751
 32
0.0
 13
-10.384566881142201
 23
153.80387628622751
 33
0.0
210
0.0
220
0.0
230
-1.0
  0
SOLID
  5
2C9B
  8
1
  6
CONTINUOUS
 62
     2
 10
-9.0428672574135653
 20
153.80387628622751
 30
0.0
 11
-10.426938442602451
 21
153.737944849645
 31
0.0
 12
-9.0088772394598156
 22
153.737944849645
 32
0.0
 13
-9.0088772394598156
 23
153.737944849645
 33
0.0
210
0.0
220
0.0
230
-1.0
  0
SOLID
  5
2C9C
  8
1
  6
CONTINUOUS
 62
     2
 10
-9.0428672574135653
 20
153.80387628622751
 30
0.0
 11
-10.384566881142201
 21
153.80387628622751
 31
0.0
 12
-10.426938442602451
 22
153.737944849645
 32
0.0
 13
-10.426938442602451
 23
153.737944849645
 33
0.0
210
0.0
220
0.0
230
-1.0
  0
SOLID
  5
2C9D
  8
1
  6
CONTINUOUS
 62
     2
 10
-9.0088772394598156
 20
153.737944849645
 30
0.0
 11
-10.454662462118639
 21
153.66869359679129
 31
0.0
 12
-8.9731757372656524
 22
153.66869359679129
 32
0.0
 13
-8.9731757372656524
 23
153.66869359679129
 33
0.0
210
0.0
220
0.0
230
-1.0
  0
SOLID
  5
2C9E
  8
1
  6
CONTINUOUS
 62
     2
 10
-9.0088772394598156
 20
153.737944849645
 30
0.0
 11
-10.426938442602451
 21
153.737944849645
 31
0.0
 12
-10.454662462118639
 22
153.66869359679129
 32
0.0
 13
-10.454662462118639
 23
153.66869359679129
 33
0.0
210
0.0
220
0.0
230
-1.0
  0
SOLID
  5
2C9F
  8
1
  6
CONTINUOUS
 62
     2
 10
-8.9731757372656524
 20
153.66869359679129
 30
0.0
 11
-10.48346446257011
 21
153.59674967773611
 31
0.0
 12
-8.9520510966252491
 22
153.59674967773611
 32
0.0
 13
-8.9520510966252491
 23
153.59674967773611
 33
0.0
210
0.0
220
0.0
230
-1.0
  0
SOLID
  5
2CA0
  8
1
  6
CONTINUOUS
 62
     2
 10
-8.9731757372656524
 20
153.66869359679129
 30
0.0
 11
-10.454662462118639
 21
153.66869359679129
 31
0.0
 12
-10.48346446257011
 22
153.59674967773611
 32
0.0
 13
-10.48346446257011
 23
153.59674967773611
 33
0.0
210
0.0
220
0.0
230
-1.0
  0
SOLID
  5
2CA1
  8
1
  6
CONTINUOUS
 62
     2
 10
-8.9520510966252491
 20
153.59674967773611
 30
0.0
 11
-10.49772391217447
 21
153.5227646277514
 31
0.0
 12
-8.9303271258683452
 22
153.5227646277514
 32
0.0
 13
-8.9303271258683452
 23
153.5227646277514
 33
0.0
210
0.0
220
0.0
230
-1.0
  0
SOLID
  5
2CA2
  8
1
  6
CONTINUOUS
 62
     2
 10
-8.9520510966252491
 20
153.59674967773611
 30
0.0
 11
-10.48346446257011
 21
153.59674967773611
 31
0.0
 12
-10.49772391217447
 22
153.5227646277514
 32
0.0
 13
-10.49772391217447
 23
153.5227646277514
 33
0.0
210
0.0
220
0.0
230
-1.0
  0
SOLID
  5
2CA3
  8
1
  6
CONTINUOUS
 62
     2
 10
-8.9303271258683452
 20
153.5227646277514
 30
0.0
 11
-10.51224762173698
 21
153.44740846690641
 31
0.0
 12
-8.9231314849606598
 22
153.44740846690641
 32
0.0
 13
-8.9231314849606598
 23
153.44740846690641
 33
0.0
210
0.0
220
0.0
230
-1.0
  0
SOLID
  5
2CA4
  8
1
  6
CONTINUOUS
 62
     2
 10
-8.9303271258683452
 20
153.5227646277514
 30
0.0
 11
-10.49772391217447
 21
153.5227646277514
 31
0.0
 12
-10.51224762173698
 22
153.44740846690641
 32
0.0
 13
-10.51224762173698
 23
153.44740846690641
 33
0.0
210
0.0
220
0.0
230
-1.0
  0
SOLID
  5
2CA5
  8
1
  6
CONTINUOUS
 62
     2
 10
-8.9231314849606598
 20
153.44740846690641
 30
0.0
 11
-10.51224762173698
 21
153.37136363226301
 31
0.0
 12
-8.9158700836785094
 22
153.37136363226301
 32
0.0
 13
-8.9158700836785094
 23
153.37136363226301
 33
0.0
210
0.0
220
0.0
230
-1.0
  0
SOLID
  5
2CA6
  8
1
  6
CONTINUOUS
 62
     2
 10
-8.9231314849606598
 20
153.44740846690641
 30
0.0
 11
-10.51224762173698
 21
153.44740846690641
 31
0.0
 12
-10.51224762173698
 22
153.37136363226301
 32
0.0
 13
-10.51224762173698
 23
153.37136363226301
 33
0.0
210
0.0
220
0.0
230
-1.0
  0
SOLID
  5
2CA7
  8
1
  6
CONTINUOUS
 62
     2
 10
-8.9158700836785094
 20
153.37136363226301
 30
0.0
 11
-10.51224762173698
 21
153.2953187976197
 31
0.0
 12
-8.9231314849606598
 22
153.2953187976197
 32
0.0
 13
-8.9231314849606598
 23
153.2953187976197
 33
0.0
210
0.0
220
0.0
230
-1.0
  0
SOLID
  5
2CA8
  8
1
  6
CONTINUOUS
 62
     2
 10
-8.9158700836785094
 20
153.37136363226301
 30
0.0
 11
-10.51224762173698
 21
153.37136363226301
 31
0.0
 12
-10.51224762173698
 22
153.2953187976197
 32
0.0
 13
-10.51224762173698
 23
153.2953187976197
 33
0.0
210
0.0
220
0.0
230
-1.0
  0
SOLID
  5
2CA9
  8
1
  6
CONTINUOUS
 62
     2
 10
-8.9231314849606598
 20
153.2953187976197
 30
0.0
 11
-10.49772391217447
 21
153.21996263677471
 31
0.0
 12
-8.9303271258683452
 22
153.21996263677471
 32
0.0
 13
-8.9303271258683452
 23
153.21996263677471
 33
0.0
210
0.0
220
0.0
230
-1.0
  0
SOLID
  5
2CAA
  8
1
  6
CONTINUOUS
 62
     2
 10
-8.9231314849606598
 20
153.2953187976197
 30
0.0
 11
-10.51224762173698
 21
153.2953187976197
 31
0.0
 12
-10.49772391217447
 22
153.21996263677471
 32
0.0
 13
-10.49772391217447
 23
153.21996263677471
 33
0.0
210
0.0
220
0.0
230
-1.0
  0
SOLID
  5
2CAB
  8
1
  6
CONTINUOUS
 62
     2
 10
-8.9303271258683452
 20
153.21996263677471
 30
0.0
 11
-10.48346446257011
 21
153.14597758678991
 31
0.0
 12
-8.9520510966252562
 22
153.14597758678991
 32
0.0
 13
-8.9520510966252562
 23
153.14597758678991
 33
0.0
210
0.0
220
0.0
230
-1.0
  0
SOLID
  5
2CAC
  8
1
  6
CONTINUOUS
 62
     2
 10
-8.9303271258683452
 20
153.21996263677471
 30
0.0
 11
-10.49772391217447
 21
153.21996263677471
 31
0.0
 12
-10.48346446257011
 22
153.14597758678991
 32
0.0
 13
-10.48346446257011
 23
153.14597758678991
 33
0.0
210
0.0
220
0.0
230
-1.0
  0
SOLID
  5
2CAD
  8
1
  6
CONTINUOUS
 62
     2
 10
-8.9520510966252562
 20
153.14597758678991
 30
0.0
 11
-10.454662462118639
 21
153.07403366773471
 31
0.0
 12
-8.9731757372656524
 22
153.07403366773471
 32
0.0
 13
-8.9731757372656524
 23
153.07403366773471
 33
0.0
210
0.0
220
0.0
230
-1.0
  0
SOLID
  5
2CAE
  8
1
  6
CONTINUOUS
 62
     2
 10
-8.9520510966252562
 20
153.14597758678991
 30
0.0
 11
-10.48346446257011
 21
153.14597758678991
 31
0.0
 12
-10.454662462118639
 22
153.07403366773471
 32
0.0
 13
-10.454662462118639
 23
153.07403366773471
 33
0.0
210
0.0
220
0.0
230
-1.0
  0
SOLID
  5
2CAF
  8
1
  6
CONTINUOUS
 62
     2
 10
-8.9731757372656524
 20
153.07403366773471
 30
0.0
 11
-10.426938442602451
 21
153.00478241488111
 31
0.0
 12
-9.0088772394598156
 22
153.00478241488111
 32
0.0
 13
-9.0088772394598156
 23
153.00478241488111
 33
0.0
210
0.0
220
0.0
230
-1.0
  0
SOLID
  5
2CB0
  8
1
  6
CONTINUOUS
 62
     2
 10
-8.9731757372656524
 20
153.07403366773471
 30
0.0
 11
-10.454662462118639
 21
153.07403366773471
 31
0.0
 12
-10.426938442602451
 22
153.00478241488111
 32
0.0
 13
-10.426938442602451
 23
153.00478241488111
 33
0.0
210
0.0
220
0.0
230
-1.0
  0
SOLID
  5
2CB1
  8
1
  6
CONTINUOUS
 62
     2
 10
-9.0088772394598156
 20
153.00478241488111
 30
0.0
 11
-10.384566881142201
 21
152.9388509782986
 31
0.0
 12
-9.0428672574135653
 22
152.9388509782986
 32
0.0
 13
-9.0428672574135653
 23
152.9388509782986
 33
0.0
210
0.0
220
0.0
230
-1.0
  0
SOLID
  5
2CB2
  8
1
  6
CONTINUOUS
 62
     2
 10
-9.0088772394598156
 20
153.00478241488111
 30
0.0
 11
-10.426938442602451
 21
153.00478241488111
 31
0.0
 12
-10.384566881142201
 22
152.9388509782986
 32
0.0
 13
-10.384566881142201
 23
152.9388509782986
 33
0.0
210
0.0
220
0.0
230
-1.0
  0
SOLID
  5
2CB3
  8
1
  6
CONTINUOUS
 62
     2
 10
-9.0428672574135653
 20
152.9388509782986
 30
0.0
 11
-10.34471255947274
 21
152.87683644328649
 31
0.0
 12
-9.0916360267885086
 22
152.87683644328649
 32
0.0
 13
-9.0916360267885086
 23
152.87683644328649
 33
0.0
210
0.0
220
0.0
230
-1.0
  0
SOLID
  5
2CB4
  8
1
  6
CONTINUOUS
 62
     2
 10
-9.0428672574135653
 20
152.9388509782986
 30
0.0
 11
-10.384566881142201
 21
152.9388509782986
 31
0.0
 12
-10.34471255947274
 22
152.87683644328649
 32
0.0
 13
-10.34471255947274
 23
152.87683644328649
 33
0.0
210
0.0
220
0.0
230
-1.0
  0
SOLID
  5
2CB5
  8
1
  6
CONTINUOUS
 62
     2
 10
-9.0916360267885086
 20
152.87683644328649
 30
0.0
 11
-10.28985207501281
 21
152.81930042307729
 31
0.0
 12
-9.1368828531944537
 22
152.81930042307729
 32
0.0
 13
-9.1368828531944537
 23
152.81930042307729
 33
0.0
210
0.0
220
0.0
230
-1.0
  0
SOLID
  5
2CB6
  8
1
  6
CONTINUOUS
 62
     2
 10
-9.0916360267885086
 20
152.87683644328649
 30
0.0
 11
-10.34471255947274
 21
152.87683644328649
 31
0.0
 12
-10.28985207501281
 22
152.81930042307729
 32
0.0
 13
-10.28985207501281
 23
152.81930042307729
 33
0.0
210
0.0
220
0.0
230
-1.0
  0
SOLID
  5
2CB7
  8
1
  6
CONTINUOUS
 62
     2
 10
-9.1368828531944537
 20
152.81930042307729
 30
0.0
 11
-10.23975867083473
 21
152.76676397277959
 31
0.0
 12
-9.1975131489084312
 22
152.76676397277959
 32
0.0
 13
-9.1975131489084312
 23
152.76676397277959
 33
0.0
210
0.0
220
0.0
230
-1.0
  0
SOLID
  5
2CB8
  8
1
  6
CONTINUOUS
 62
     2
 10
-9.1368828531944537
 20
152.81930042307729
 30
0.0
 11
-10.28985207501281
 21
152.81930042307729
 31
0.0
 12
-10.23975867083473
 22
152.76676397277959
 32
0.0
 13
-10.23975867083473
 23
152.76676397277959
 33
0.0
210
0.0
220
0.0
230
-1.0
  0
SOLID
  5
2CB9
  8
1
  6
CONTINUOUS
 62
     2
 10
-9.1975131489084312
 20
152.76676397277959
 30
0.0
 11
-10.17367060005852
 21
152.71970287062271
 31
0.0
 12
-9.2518245560215515
 22
152.71970287062271
 32
0.0
 13
-9.2518245560215515
 23
152.71970287062271
 33
0.0
210
0.0
220
0.0
230
-1.0
  0
SOLID
  5
2CBA
  8
1
  6
CONTINUOUS
 62
     2
 10
-9.1975131489084312
 20
152.76676397277959
 30
0.0
 11
-10.23975867083473
 21
152.76676397277959
 31
0.0
 12
-10.17367060005852
 22
152.71970287062271
 32
0.0
 13
-10.17367060005852
 23
152.71970287062271
 33
0.0
210
0.0
220
0.0
230
-1.0
  0
SOLID
  5
2CBB
  8
1
  6
CONTINUOUS
 62
     2
 10
-9.2518245560215515
 20
152.71970287062271
 30
0.0
 11
-10.11587008367851
 21
152.67854330923549
 31
0.0
 12
-9.3231150075615652
 22
152.67854330923549
 32
0.0
 13
-9.3231150075615652
 23
152.67854330923549
 33
0.0
210
0.0
220
0.0
230
-1.0
  0
SOLID
  5
2CBC
  8
1
  6
CONTINUOUS
 62
     2
 10
-9.2518245560215515
 20
152.71970287062271
 30
0.0
 11
-10.17367060005852
 21
152.71970287062271
 31
0.0
 12
-10.11587008367851
 22
152.67854330923549
 32
0.0
 13
-10.11587008367851
 23
152.67854330923549
 33
0.0
210
0.0
220
0.0
230
-1.0
  0
SOLID
  5
2CBD
  8
1
  6
CONTINUOUS
 62
     2
 10
-9.3231150075615652
 20
152.67854330923549
 30
0.0
 11
-10.03948199050129
 21
152.6436580359794
 31
0.0
 12
-9.3835380732770002
 22
152.6436580359794
 32
0.0
 13
-9.3835380732770002
 23
152.6436580359794
 33
0.0
210
0.0
220
0.0
230
-1.0
  0
SOLID
  5
2CBE
  8
1
  6
CONTINUOUS
 62
     2
 10
-9.3231150075615652
 20
152.67854330923549
 30
0.0
 11
-10.11587008367851
 21
152.67854330923549
 31
0.0
 12
-10.03948199050129
 22
152.6436580359794
 32
0.0
 13
-10.03948199050129
 23
152.6436580359794
 33
0.0
210
0.0
220
0.0
230
-1.0
  0
SOLID
  5
2CBF
  8
1
  6
CONTINUOUS
 62
     2
 10
-9.3835380732770002
 20
152.6436580359794
 30
0.0
 11
-9.9775244543324462
 21
152.61536297729131
 31
0.0
 12
-9.4652912763564032
 22
152.61536297729131
 32
0.0
 13
-9.4652912763564032
 23
152.61536297729131
 33
0.0
210
0.0
220
0.0
230
-1.0
  0
SOLID
  5
2CC0
  8
1
  6
CONTINUOUS
 62
     2
 10
-9.3835380732770002
 20
152.6436580359794
 30
0.0
 11
-10.03948199050129
 21
152.6436580359794
 31
0.0
 12
-9.9775244543324462
 22
152.61536297729131
 32
0.0
 13
-9.9775244543324462
 23
152.61536297729131
 33
0.0
210
0.0
220
0.0
230
-1.0
  0
SOLID
  5
2CC1
  8
1
  6
CONTINUOUS
 62
     2
 10
-9.4652912763564032
 20
152.61536297729131
 30
0.0
 11
-9.8891121222389984
 21
152.59391437760419
 31
0.0
 12
-9.5272629352709686
 22
152.59391437760419
 32
0.0
 13
-9.5272629352709686
 23
152.59391437760419
 33
0.0
210
0.0
220
0.0
230
-1.0
  0
SOLID
  5
2CC2
  8
1
  6
CONTINUOUS
 62
     2
 10
-9.4652912763564032
 20
152.61536297729131
 30
0.0
 11
-9.9775244543324462
 21
152.61536297729131
 31
0.0
 12
-9.8891121222389984
 22
152.59391437760419
 32
0.0
 13
-9.8891121222389984
 23
152.59391437760419
 33
0.0
210
0.0
220
0.0
230
-1.0
  0
SOLID
  5
2CC3
  8
1
  6
CONTINUOUS
 62
     2
 10
-9.6274720728645402
 20
152.5795064787583
 30
0.0
 11
-9.8297219542971384
 21
152.5795064787583
 31
0.0
 12
-9.6778045510195163
 22
152.57226976091661
 32
0.0
 13
-9.6778045510195163
 23
152.57226976091661
 33
0.0
210
0.0
220
0.0
230
-1.0
  0
SOLID
  5
2CC4
  8
1
  6
CONTINUOUS
 62
     2
 10
-9.5272629352709686
 20
152.59391437760419
 30
0.0
 11
-9.8297219542971384
 21
152.5795064787583
 31
0.0
 12
-9.6274720728645402
 22
152.5795064787583
 32
0.0
 13
-9.6274720728645402
 23
152.5795064787583
 33
0.0
210
0.0
220
0.0
230
-1.0
  0
SOLID
  5
2CC5
  8
1
  6
CONTINUOUS
 62
     2
 10
-9.5272629352709686
 20
152.59391437760419
 30
0.0
 11
-9.8891121222389984
 21
152.59391437760419
 31
0.0
 12
-9.8297219542971384
 22
152.5795064787583
 32
0.0
 13
-9.8297219542971384
 23
152.5795064787583
 33
0.0
210
0.0
220
0.0
230
-1.0
  0
LINE
  5
2CC6
  8
1
  6
CONTINUOUS
 62
     2
 10
9.6778045510195163
 20
154.17045750360941
 30
0.0
 11
9.8297219542971384
 21
154.16322078576781
 31
0.0
  0
LINE
  5
2CC7
  8
1
  6
CONTINUOUS
 62
     2
 10
9.6274720728644763
 20
154.16322078576781
 30
0.0
 11
9.6778045510195163
 21
154.17045750360941
 31
0.0
  0
LINE
  5
2CC8
  8
1
  6
CONTINUOUS
 62
     2
 10
9.5272629352709686
 20
154.14881288692189
 30
0.0
 11
9.6274720728644763
 21
154.16322078576781
 31
0.0
  0
LINE
  5
2CC9
  8
1
  6
CONTINUOUS
 62
     2
 10
9.8297219542971384
 20
154.16322078576781
 30
0.0
 11
9.8891121222388811
 21
154.14881288692189
 31
0.0
  0
LINE
  5
2CCA
  8
1
  6
CONTINUOUS
 62
     2
 10
9.465291276356357
 20
154.12736428723471
 30
0.0
 11
9.5272629352709686
 21
154.14881288692189
 31
0.0
  0
LINE
  5
2CCB
  8
1
  6
CONTINUOUS
 62
     2
 10
9.8891121222388811
 20
154.14881288692189
 30
0.0
 11
9.9775244543324462
 21
154.12736428723471
 31
0.0
  0
LINE
  5
2CCC
  8
1
  6
CONTINUOUS
 62
     2
 10
9.3835380732770002
 20
154.0990692285466
 30
0.0
 11
9.465291276356357
 21
154.12736428723471
 31
0.0
  0
LINE
  5
2CCD
  8
1
  6
CONTINUOUS
 62
     2
 10
9.9775244543324462
 20
154.12736428723471
 30
0.0
 11
10.03948199050129
 21
154.0990692285466
 31
0.0
  0
LINE
  5
2CCE
  8
1
  6
CONTINUOUS
 62
     2
 10
9.3231150075615652
 20
154.06418395529059
 30
0.0
 11
9.3835380732770002
 21
154.0990692285466
 31
0.0
  0
LINE
  5
2CCF
  8
1
  6
CONTINUOUS
 62
     2
 10
10.03948199050129
 20
154.0990692285466
 30
0.0
 11
10.11587008367851
 21
154.06418395529059
 31
0.0
  0
LINE
  5
2CD0
  8
1
  6
CONTINUOUS
 62
     2
 10
9.2518245560215515
 20
154.02302439390331
 30
0.0
 11
9.3231150075615652
 21
154.06418395529059
 31
0.0
  0
LINE
  5
2CD1
  8
1
  6
CONTINUOUS
 62
     2
 10
10.11587008367851
 20
154.06418395529059
 30
0.0
 11
10.17367060005852
 21
154.02302439390331
 31
0.0
  0
LINE
  5
2CD2
  8
1
  6
CONTINUOUS
 62
     2
 10
9.1975131489084312
 20
153.97596329174641
 30
0.0
 11
9.2518245560215515
 21
154.02302439390331
 31
0.0
  0
LINE
  5
2CD3
  8
1
  6
CONTINUOUS
 62
     2
 10
10.17367060005852
 20
154.02302439390331
 30
0.0
 11
10.239758670834741
 21
153.97596329174641
 31
0.0
  0
LINE
  5
2CD4
  8
1
  6
CONTINUOUS
 62
     2
 10
9.1368828531944537
 20
153.9234268414487
 30
0.0
 11
9.1975131489084312
 21
153.97596329174641
 31
0.0
  0
LINE
  5
2CD5
  8
1
  6
CONTINUOUS
 62
     2
 10
10.239758670834741
 20
153.97596329174641
 30
0.0
 11
10.28985207501281
 21
153.9234268414487
 31
0.0
  0
LINE
  5
2CD6
  8
1
  6
CONTINUOUS
 62
     2
 10
9.0916360267885086
 20
153.8658908212395
 30
0.0
 11
9.1368828531944537
 21
153.9234268414487
 31
0.0
  0
LINE
  5
2CD7
  8
1
  6
CONTINUOUS
 62
     2
 10
10.28985207501281
 20
153.9234268414487
 30
0.0
 11
10.34471255947274
 21
153.8658908212395
 31
0.0
  0
LINE
  5
2CD8
  8
1
  6
CONTINUOUS
 62
     2
 10
9.0428672574135653
 20
153.80387628622751
 30
0.0
 11
9.0916360267885086
 21
153.8658908212395
 31
0.0
  0
LINE
  5
2CD9
  8
1
  6
CONTINUOUS
 62
     2
 10
10.34471255947274
 20
153.8658908212395
 30
0.0
 11
10.384566881142201
 21
153.80387628622751
 31
0.0
  0
LINE
  5
2CDA
  8
1
  6
CONTINUOUS
 62
     2
 10
9.0088772394598156
 20
153.737944849645
 30
0.0
 11
9.0428672574135653
 21
153.80387628622751
 31
0.0
  0
LINE
  5
2CDB
  8
1
  6
CONTINUOUS
 62
     2
 10
10.384566881142201
 20
153.80387628622751
 30
0.0
 11
10.426938442602451
 21
153.737944849645
 31
0.0
  0
LINE
  5
2CDC
  8
1
  6
CONTINUOUS
 62
     2
 10
8.9731757372656524
 20
153.66869359679129
 30
0.0
 11
9.0088772394598156
 21
153.737944849645
 31
0.0
  0
LINE
  5
2CDD
  8
1
  6
CONTINUOUS
 62
     2
 10
10.426938442602451
 20
153.737944849645
 30
0.0
 11
10.454662462118639
 21
153.66869359679129
 31
0.0
  0
LINE
  5
2CDE
  8
1
  6
CONTINUOUS
 62
     2
 10
8.9520510966252491
 20
153.59674967773611
 30
0.0
 11
8.9731757372656524
 21
153.66869359679129
 31
0.0
  0
LINE
  5
2CDF
  8
1
  6
CONTINUOUS
 62
     2
 10
10.454662462118639
 20
153.66869359679129
 30
0.0
 11
10.48346446257011
 21
153.59674967773611
 31
0.0
  0
LINE
  5
2CE0
  8
1
  6
CONTINUOUS
 62
     2
 10
8.9303271258683452
 20
153.5227646277514
 30
0.0
 11
8.9520510966252491
 21
153.59674967773611
 31
0.0
  0
LINE
  5
2CE1
  8
1
  6
CONTINUOUS
 62
     2
 10
10.48346446257011
 20
153.59674967773611
 30
0.0
 11
10.49772391217447
 21
153.5227646277514
 31
0.0
  0
LINE
  5
2CE2
  8
1
  6
CONTINUOUS
 62
     2
 10
8.9231314849606598
 20
153.44740846690641
 30
0.0
 11
8.9303271258683452
 21
153.5227646277514
 31
0.0
  0
LINE
  5
2CE3
  8
1
  6
CONTINUOUS
 62
     2
 10
10.49772391217447
 20
153.5227646277514
 30
0.0
 11
10.51224762173698
 21
153.44740846690641
 31
0.0
  0
LINE
  5
2CE4
  8
1
  6
CONTINUOUS
 62
     2
 10
8.9158700836785094
 20
153.37136363226301
 30
0.0
 11
8.9231314849606598
 21
153.44740846690641
 31
0.0
  0
LINE
  5
2CE5
  8
1
  6
CONTINUOUS
 62
     2
 10
10.51224762173698
 20
153.44740846690641
 30
0.0
 11
10.51224762173698
 21
153.37136363226301
 31
0.0
  0
LINE
  5
2CE6
  8
1
  6
CONTINUOUS
 62
     2
 10
8.9231314849606598
 20
153.2953187976197
 30
0.0
 11
8.9158700836785094
 21
153.37136363226301
 31
0.0
  0
LINE
  5
2CE7
  8
1
  6
CONTINUOUS
 62
     2
 10
10.51224762173698
 20
153.37136363226301
 30
0.0
 11
10.51224762173698
 21
153.2953187976197
 31
0.0
  0
LINE
  5
2CE8
  8
1
  6
CONTINUOUS
 62
     2
 10
8.9303271258683452
 20
153.21996263677471
 30
0.0
 11
8.9231314849606598
 21
153.2953187976197
 31
0.0
  0
LINE
  5
2CE9
  8
1
  6
CONTINUOUS
 62
     2
 10
10.51224762173698
 20
153.2953187976197
 30
0.0
 11
10.49772391217447
 21
153.21996263677471
 31
0.0
  0
LINE
  5
2CEA
  8
1
  6
CONTINUOUS
 62
     2
 10
8.9520510966252562
 20
153.14597758678991
 30
0.0
 11
8.9303271258683452
 21
153.21996263677471
 31
0.0
  0
LINE
  5
2CEB
  8
1
  6
CONTINUOUS
 62
     2
 10
10.49772391217447
 20
153.21996263677471
 30
0.0
 11
10.48346446257011
 21
153.14597758678991
 31
0.0
  0
LINE
  5
2CEC
  8
1
  6
CONTINUOUS
 62
     2
 10
8.9731757372656524
 20
153.07403366773471
 30
0.0
 11
8.9520510966252562
 21
153.14597758678991
 31
0.0
  0
LINE
  5
2CED
  8
1
  6
CONTINUOUS
 62
     2
 10
10.48346446257011
 20
153.14597758678991
 30
0.0
 11
10.454662462118639
 21
153.07403366773471
 31
0.0
  0
LINE
  5
2CEE
  8
1
  6
CONTINUOUS
 62
     2
 10
9.0088772394598156
 20
153.00478241488111
 30
0.0
 11
8.9731757372656524
 21
153.07403366773471
 31
0.0
  0
LINE
  5
2CEF
  8
1
  6
CONTINUOUS
 62
     2
 10
10.454662462118639
 20
153.07403366773471
 30
0.0
 11
10.426938442602451
 21
153.00478241488111
 31
0.0
  0
LINE
  5
2CF0
  8
1
  6
CONTINUOUS
 62
     2
 10
9.0428672574135653
 20
152.9388509782986
 30
0.0
 11
9.0088772394598156
 21
153.00478241488111
 31
0.0
  0
LINE
  5
2CF1
  8
1
  6
CONTINUOUS
 62
     2
 10
10.426938442602451
 20
153.00478241488111
 30
0.0
 11
10.384566881142201
 21
152.9388509782986
 31
0.0
  0
LINE
  5
2CF2
  8
1
  6
CONTINUOUS
 62
     2
 10
9.0916360267885086
 20
152.87683644328649
 30
0.0
 11
9.0428672574135653
 21
152.9388509782986
 31
0.0
  0
LINE
  5
2CF3
  8
1
  6
CONTINUOUS
 62
     2
 10
10.384566881142201
 20
152.9388509782986
 30
0.0
 11
10.34471255947274
 21
152.87683644328649
 31
0.0
  0
LINE
  5
2CF4
  8
1
  6
CONTINUOUS
 62
     2
 10
9.1368828531944537
 20
152.81930042307729
 30
0.0
 11
9.0916360267885086
 21
152.87683644328649
 31
0.0
  0
LINE
  5
2CF5
  8
1
  6
CONTINUOUS
 62
     2
 10
10.34471255947274
 20
152.87683644328649
 30
0.0
 11
10.28985207501281
 21
152.81930042307729
 31
0.0
  0
LINE
  5
2CF6
  8
1
  6
CONTINUOUS
 62
     2
 10
9.1975131489084312
 20
152.76676397277959
 30
0.0
 11
9.1368828531944537
 21
152.81930042307729
 31
0.0
  0
LINE
  5
2CF7
  8
1
  6
CONTINUOUS
 62
     2
 10
10.28985207501281
 20
152.81930042307729
 30
0.0
 11
10.23975867083473
 21
152.76676397277959
 31
0.0
  0
LINE
  5
2CF8
  8
1
  6
CONTINUOUS
 62
     2
 10
9.2518245560215515
 20
152.71970287062271
 30
0.0
 11
9.1975131489084312
 21
152.76676397277959
 31
0.0
  0
LINE
  5
2CF9
  8
1
  6
CONTINUOUS
 62
     2
 10
10.23975867083473
 20
152.76676397277959
 30
0.0
 11
10.17367060005852
 21
152.71970287062271
 31
0.0
  0
LINE
  5
2CFA
  8
1
  6
CONTINUOUS
 62
     2
 10
9.3231150075615652
 20
152.67854330923549
 30
0.0
 11
9.2518245560215515
 21
152.71970287062271
 31
0.0
  0
LINE
  5
2CFB
  8
1
  6
CONTINUOUS
 62
     2
 10
10.17367060005852
 20
152.71970287062271
 30
0.0
 11
10.11587008367851
 21
152.67854330923549
 31
0.0
  0
LINE
  5
2CFC
  8
1
  6
CONTINUOUS
 62
     2
 10
9.3835380732770002
 20
152.6436580359794
 30
0.0
 11
9.3231150075615652
 21
152.67854330923549
 31
0.0
  0
LINE
  5
2CFD
  8
1
  6
CONTINUOUS
 62
     2
 10
10.11587008367851
 20
152.67854330923549
 30
0.0
 11
10.03948199050129
 21
152.6436580359794
 31
0.0
  0
LINE
  5
2CFE
  8
1
  6
CONTINUOUS
 62
     2
 10
9.4652912763564032
 20
152.61536297729131
 30
0.0
 11
9.3835380732770002
 21
152.6436580359794
 31
0.0
  0
LINE
  5
2CFF
  8
1
  6
CONTINUOUS
 62
     2
 10
10.03948199050129
 20
152.6436580359794
 30
0.0
 11
9.9775244543324462
 21
152.61536297729131
 31
0.0
  0
LINE
  5
2D00
  8
1
  6
CONTINUOUS
 62
     2
 10
9.5272629352709686
 20
152.59391437760419
 30
0.0
 11
9.4652912763564032
 21
152.61536297729131
 31
0.0
  0
LINE
  5
2D01
  8
1
  6
CONTINUOUS
 62
     2
 10
9.9775244543324462
 20
152.61536297729131
 30
0.0
 11
9.8891121222389984
 21
152.59391437760419
 31
0.0
  0
LINE
  5
2D02
  8
1
  6
CONTINUOUS
 62
     2
 10
9.8297219542971384
 20
152.5795064787583
 30
0.0
 11
9.6778045510195163
 21
152.57226976091661
 31
0.0
  0
LINE
  5
2D03
  8
1
  6
CONTINUOUS
 62
     2
 10
9.6778045510195163
 20
152.57226976091661
 30
0.0
 11
9.6274720728645402
 21
152.5795064787583
 31
0.0
  0
LINE
  5
2D04
  8
1
  6
CONTINUOUS
 62
     2
 10
9.6274720728645402
 20
152.5795064787583
 30
0.0
 11
9.5272629352709686
 21
152.59391437760419
 31
0.0
  0
LINE
  5
2D05
  8
1
  6
CONTINUOUS
 62
     2
 10
9.8891121222389984
 20
152.59391437760419
 30
0.0
 11
9.8297219542971384
 21
152.5795064787583
 31
0.0
  0
ENDBLK
  5
2D07
  8
0
  0
BLOCK
  8
0
  2
*U36
 70
     1
 10
0.0
 20
0.0
 30
0.0
  3
*U36
  1

  0
TEXT
  5
2D09
  8
1
 62
     3
 10
13.64147802923935
 20
154.37136363226301
 30
0.0
 40
3.2000000000000002
  1
1.5
 50
0.0001388888891441
 41
0.63
  7
CONVERTER_1
  0
ENDBLK
  5
2D0B
  8
0
  0
BLOCK
  8
0
  2
*U37
 70
     1
 10
0.0
 20
0.0
 30
0.0
  3
*U37
  1

  0
TEXT
  5
2D0D
  8
1
 62
     3
 10
41.855952200547669
 20
147.971470040702
 30
0.0
 40
3.2000000000000002
  1
\U+03C667.6
 50
45.000000000000803
 41
0.6230000000000001
  7
CONVERTER_3
  0
ENDBLK
  5
2D0F
  8
0
  0
BLOCK
  8
0
  2
*U38
 70
     1
 10
0.0
 20
0.0
 30
0.0
  3
*U38
  1

  0
TEXT
  5
2D11
  8
1
 62
     3
 10
42.222537590138238
 20
114.9394872502105
 30
0.0
 40
3.2000000000000002
  1
52
 50
90.0
 41
0.63
  7
CONVERTER_1
  0
ENDBLK
  5
2D13
  8
0
  0
BLOCK
  8
0
  2
*U39
 70
     1
 10
0.0
 20
0.0
 30
0.0
  3
*U39
  1

  0
TEXT
  5
2D15
  8
1
 62
     3
 10
33.38444235204301
 20
103.4436346045684
 30
0.0
 40
3.2000000000000002
  1
n
 50
90.0
 41
0.63
  7
CONVERTER_1
  0
TEXT
  5
2D16
  8
1
 62
     3
 10
33.38444235204301
 20
105.7476346045685
 30
0.0
 40
3.2000000000000002
  1
72
 50
90.0
 41
0.63
  7
CONVERTER_1
  0
ENDBLK
  5
2D18
  8
0
  0
BLOCK
  8
0
  2
*U40
 70
     1
 10
0.0
 20
0.0
 30
0.0
  3
*U40
  1

  0
SOLID
  5
2D1A
  8
1
  6
CONTINUOUS
 62
     2
 10
-9.6778045510195163
 20
154.17045750360941
 30
0.0
 11
-9.8297219542971384
 21
154.16322078576781
 31
0.0
 12
-9.6274720728644763
 22
154.16322078576781
 32
0.0
 13
-9.6274720728644763
 23
154.16322078576781
 33
0.0
210
0.0
220
0.0
230
-1.0
  0
SOLID
  5
2D1B
  8
1
  6
CONTINUOUS
 62
     2
 10
-9.6274720728644763
 20
154.16322078576781
 30
0.0
 11
-9.8891121222388811
 21
154.14881288692189
 31
0.0
 12
-9.5272629352709686
 22
154.14881288692189
 32
0.0
 13
-9.5272629352709686
 23
154.14881288692189
 33
0.0
210
0.0
220
0.0
230
-1.0
  0
SOLID
  5
2D1C
  8
1
  6
CONTINUOUS
 62
     2
 10
-9.6274720728644763
 20
154.16322078576781
 30
0.0
 11
-9.8297219542971384
 21
154.16322078576781
 31
0.0
 12
-9.8891121222388811
 22
154.14881288692189
 32
0.0
 13
-9.8891121222388811
 23
154.14881288692189
 33
0.0
210
0.0
220
0.0
230
-1.0
  0
SOLID
  5
2D1D
  8
1
  6
CONTINUOUS
 62
     2
 10
-9.5272629352709686
 20
154.14881288692189
 30
0.0
 11
-9.9775244543324462
 21
154.12736428723471
 31
0.0
 12
-9.465291276356357
 22
154.12736428723471
 32
0.0
 13
-9.465291276356357
 23
154.12736428723471
 33
0.0
210
0.0
220
0.0
230
-1.0
  0
SOLID
  5
2D1E
  8
1
  6
CONTINUOUS
 62
     2
 10
-9.5272629352709686
 20
154.14881288692189
 30
0.0
 11
-9.8891121222388811
 21
154.14881288692189
 31
0.0
 12
-9.9775244543324462
 22
154.12736428723471
 32
0.0
 13
-9.9775244543324462
 23
154.12736428723471
 33
0.0
210
0.0
220
0.0
230
-1.0
  0
SOLID
  5
2D1F
  8
1
  6
CONTINUOUS
 62
     2
 10
-9.465291276356357
 20
154.12736428723471
 30
0.0
 11
-10.03948199050129
 21
154.0990692285466
 31
0.0
 12
-9.3835380732770002
 22
154.0990692285466
 32
0.0
 13
-9.3835380732770002
 23
154.0990692285466
 33
0.0
210
0.0
220
0.0
230
-1.0
  0
SOLID
  5
2D20
  8
1
  6
CONTINUOUS
 62
     2
 10
-9.465291276356357
 20
154.12736428723471
 30
0.0
 11
-9.9775244543324462
 21
154.12736428723471
 31
0.0
 12
-10.03948199050129
 22
154.0990692285466
 32
0.0
 13
-10.03948199050129
 23
154.0990692285466
 33
0.0
210
0.0
220
0.0
230
-1.0
  0
SOLID
  5
2D21
  8
1
  6
CONTINUOUS
 62
     2
 10
-9.3835380732770002
 20
154.0990692285466
 30
0.0
 11
-10.11587008367851
 21
154.06418395529059
 31
0.0
 12
-9.3231150075615652
 22
154.06418395529059
 32
0.0
 13
-9.3231150075615652
 23
154.06418395529059
 33
0.0
210
0.0
220
0.0
230
-1.0
  0
SOLID
  5
2D22
  8
1
  6
CONTINUOUS
 62
     2
 10
-9.3835380732770002
 20
154.0990692285466
 30
0.0
 11
-10.03948199050129
 21
154.0990692285466
 31
0.0
 12
-10.11587008367851
 22
154.06418395529059
 32
0.0
 13
-10.11587008367851
 23
154.06418395529059
 33
0.0
210
0.0
220
0.0
230
-1.0
  0
SOLID
  5
2D23
  8
1
  6
CONTINUOUS
 62
     2
 10
-9.3231150075615652
 20
154.06418395529059
 30
0.0
 11
-10.17367060005852
 21
154.02302439390331
 31
0.0
 12
-9.2518245560215515
 22
154.02302439390331
 32
0.0
 13
-9.2518245560215515
 23
154.02302439390331
 33
0.0
210
0.0
220
0.0
230
-1.0
  0
SOLID
  5
2D24
  8
1
  6
CONTINUOUS
 62
     2
 10
-9.3231150075615652
 20
154.06418395529059
 30
0.0
 11
-10.11587008367851
 21
154.06418395529059
 31
0.0
 12
-10.17367060005852
 22
154.02302439390331
 32
0.0
 13
-10.17367060005852
 23
154.02302439390331
 33
0.0
210
0.0
220
0.0
230
-1.0
  0
SOLID
  5
2D25
  8
1
  6
CONTINUOUS
 62
     2
 10
-9.2518245560215515
 20
154.02302439390331
 30
0.0
 11
-10.239758670834741
 21
153.97596329174641
 31
0.0
 12
-9.1975131489084312
 22
153.97596329174641
 32
0.0
 13
-9.1975131489084312
 23
153.97596329174641
 33
0.0
210
0.0
220
0.0
230
-1.0
  0
SOLID
  5
2D26
  8
1
  6
CONTINUOUS
 62
     2
 10
-9.2518245560215515
 20
154.02302439390331
 30
0.0
 11
-10.17367060005852
 21
154.02302439390331
 31
0.0
 12
-10.239758670834741
 22
153.97596329174641
 32
0.0
 13
-10.239758670834741
 23
153.97596329174641
 33
0.0
210
0.0
220
0.0
230
-1.0
  0
SOLID
  5
2D27
  8
1
  6
CONTINUOUS
 62
     2
 10
-9.1975131489084312
 20
153.97596329174641
 30
0.0
 11
-10.28985207501281
 21
153.9234268414487
 31
0.0
 12
-9.1368828531944537
 22
153.9234268414487
 32
0.0
 13
-9.1368828531944537
 23
153.9234268414487
 33
0.0
210
0.0
220
0.0
230
-1.0
  0
SOLID
  5
2D28
  8
1
  6
CONTINUOUS
 62
     2
 10
-9.1975131489084312
 20
153.97596329174641
 30
0.0
 11
-10.239758670834741
 21
153.97596329174641
 31
0.0
 12
-10.28985207501281
 22
153.9234268414487
 32
0.0
 13
-10.28985207501281
 23
153.9234268414487
 33
0.0
210
0.0
220
0.0
230
-1.0
  0
SOLID
  5
2D29
  8
1
  6
CONTINUOUS
 62
     2
 10
-9.1368828531944537
 20
153.9234268414487
 30
0.0
 11
-10.34471255947274
 21
153.8658908212395
 31
0.0
 12
-9.0916360267885086
 22
153.8658908212395
 32
0.0
 13
-9.0916360267885086
 23
153.8658908212395
 33
0.0
210
0.0
220
0.0
230
-1.0
  0
SOLID
  5
2D2A
  8
1
  6
CONTINUOUS
 62
     2
 10
-9.1368828531944537
 20
153.9234268414487
 30
0.0
 11
-10.28985207501281
 21
153.9234268414487
 31
0.0
 12
-10.34471255947274
 22
153.8658908212395
 32
0.0
 13
-10.34471255947274
 23
153.8658908212395
 33
0.0
210
0.0
220
0.0
230
-1.0
  0
SOLID
  5
2D2B
  8
1
  6
CONTINUOUS
 62
     2
 10
-9.0916360267885086
 20
153.8658908212395
 30
0.0
 11
-10.384566881142201
 21
153.80387628622751
 31
0.0
 12
-9.0428672574135653
 22
153.80387628622751
 32
0.0
 13
-9.0428672574135653
 23
153.80387628622751
 33
0.0
210
0.0
220
0.0
230
-1.0
  0
SOLID
  5
2D2C
  8
1
  6
CONTINUOUS
 62
     2
 10
-9.0916360267885086
 20
153.8658908212395
 30
0.0
 11
-10.34471255947274
 21
153.8658908212395
 31
0.0
 12
-10.384566881142201
 22
153.80387628622751
 32
0.0
 13
-10.384566881142201
 23
153.80387628622751
 33
0.0
210
0.0
220
0.0
230
-1.0
  0
SOLID
  5
2D2D
  8
1
  6
CONTINUOUS
 62
     2
 10
-9.0428672574135653
 20
153.80387628622751
 30
0.0
 11
-10.426938442602451
 21
153.737944849645
 31
0.0
 12
-9.0088772394598156
 22
153.737944849645
 32
0.0
 13
-9.0088772394598156
 23
153.737944849645
 33
0.0
210
0.0
220
0.0
230
-1.0
  0
SOLID
  5
2D2E
  8
1
  6
CONTINUOUS
 62
     2
 10
-9.0428672574135653
 20
153.80387628622751
 30
0.0
 11
-10.384566881142201
 21
153.80387628622751
 31
0.0
 12
-10.426938442602451
 22
153.737944849645
 32
0.0
 13
-10.426938442602451
 23
153.737944849645
 33
0.0
210
0.0
220
0.0
230
-1.0
  0
SOLID
  5
2D2F
  8
1
  6
CONTINUOUS
 62
     2
 10
-9.0088772394598156
 20
153.737944849645
 30
0.0
 11
-10.454662462118639
 21
153.66869359679129
 31
0.0
 12
-8.9731757372656524
 22
153.66869359679129
 32
0.0
 13
-8.9731757372656524
 23
153.66869359679129
 33
0.0
210
0.0
220
0.0
230
-1.0
  0
SOLID
  5
2D30
  8
1
  6
CONTINUOUS
 62
     2
 10
-9.0088772394598156
 20
153.737944849645
 30
0.0
 11
-10.426938442602451
 21
153.737944849645
 31
0.0
 12
-10.454662462118639
 22
153.66869359679129
 32
0.0
 13
-10.454662462118639
 23
153.66869359679129
 33
0.0
210
0.0
220
0.0
230
-1.0
  0
SOLID
  5
2D31
  8
1
  6
CONTINUOUS
 62
     2
 10
-8.9731757372656524
 20
153.66869359679129
 30
0.0
 11
-10.48346446257011
 21
153.59674967773611
 31
0.0
 12
-8.9520510966252491
 22
153.59674967773611
 32
0.0
 13
-8.9520510966252491
 23
153.59674967773611
 33
0.0
210
0.0
220
0.0
230
-1.0
  0
SOLID
  5
2D32
  8
1
  6
CONTINUOUS
 62
     2
 10
-8.9731757372656524
 20
153.66869359679129
 30
0.0
 11
-10.454662462118639
 21
153.66869359679129
 31
0.0
 12
-10.48346446257011
 22
153.59674967773611
 32
0.0
 13
-10.48346446257011
 23
153.59674967773611
 33
0.0
210
0.0
220
0.0
230
-1.0
  0
SOLID
  5
2D33
  8
1
  6
CONTINUOUS
 62
     2
 10
-8.9520510966252491
 20
153.59674967773611
 30
0.0
 11
-10.49772391217447
 21
153.5227646277514
 31
0.0
 12
-8.9303271258683452
 22
153.5227646277514
 32
0.0
 13
-8.9303271258683452
 23
153.5227646277514
 33
0.0
210
0.0
220
0.0
230
-1.0
  0
SOLID
  5
2D34
  8
1
  6
CONTINUOUS
 62
     2
 10
-8.9520510966252491
 20
153.59674967773611
 30
0.0
 11
-10.48346446257011
 21
153.59674967773611
 31
0.0
 12
-10.49772391217447
 22
153.5227646277514
 32
0.0
 13
-10.49772391217447
 23
153.5227646277514
 33
0.0
210
0.0
220
0.0
230
-1.0
  0
SOLID
  5
2D35
  8
1
  6
CONTINUOUS
 62
     2
 10
-8.9303271258683452
 20
153.5227646277514
 30
0.0
 11
-10.51224762173698
 21
153.44740846690641
 31
0.0
 12
-8.9231314849606598
 22
153.44740846690641
 32
0.0
 13
-8.9231314849606598
 23
153.44740846690641
 33
0.0
210
0.0
220
0.0
230
-1.0
  0
SOLID
  5
2D36
  8
1
  6
CONTINUOUS
 62
     2
 10
-8.9303271258683452
 20
153.5227646277514
 30
0.0
 11
-10.49772391217447
 21
153.5227646277514
 31
0.0
 12
-10.51224762173698
 22
153.44740846690641
 32
0.0
 13
-10.51224762173698
 23
153.44740846690641
 33
0.0
210
0.0
220
0.0
230
-1.0
  0
SOLID
  5
2D37
  8
1
  6
CONTINUOUS
 62
     2
 10
-8.9231314849606598
 20
153.44740846690641
 30
0.0
 11
-10.51224762173698
 21
153.37136363226301
 31
0.0
 12
-8.9158700836785094
 22
153.37136363226301
 32
0.0
 13
-8.9158700836785094
 23
153.37136363226301
 33
0.0
210
0.0
220
0.0
230
-1.0
  0
SOLID
  5
2D38
  8
1
  6
CONTINUOUS
 62
     2
 10
-8.9231314849606598
 20
153.44740846690641
 30
0.0
 11
-10.51224762173698
 21
153.44740846690641
 31
0.0
 12
-10.51224762173698
 22
153.37136363226301
 32
0.0
 13
-10.51224762173698
 23
153.37136363226301
 33
0.0
210
0.0
220
0.0
230
-1.0
  0
SOLID
  5
2D39
  8
1
  6
CONTINUOUS
 62
     2
 10
-8.9158700836785094
 20
153.37136363226301
 30
0.0
 11
-10.51224762173698
 21
153.2953187976197
 31
0.0
 12
-8.9231314849606598
 22
153.2953187976197
 32
0.0
 13
-8.9231314849606598
 23
153.2953187976197
 33
0.0
210
0.0
220
0.0
230
-1.0
  0
SOLID
  5
2D3A
  8
1
  6
CONTINUOUS
 62
     2
 10
-8.9158700836785094
 20
153.37136363226301
 30
0.0
 11
-10.51224762173698
 21
153.37136363226301
 31
0.0
 12
-10.51224762173698
 22
153.2953187976197
 32
0.0
 13
-10.51224762173698
 23
153.2953187976197
 33
0.0
210
0.0
220
0.0
230
-1.0
  0
SOLID
  5
2D3B
  8
1
  6
CONTINUOUS
 62
     2
 10
-8.9231314849606598
 20
153.2953187976197
 30
0.0
 11
-10.49772391217447
 21
153.21996263677471
 31
0.0
 12
-8.9303271258683452
 22
153.21996263677471
 32
0.0
 13
-8.9303271258683452
 23
153.21996263677471
 33
0.0
210
0.0
220
0.0
230
-1.0
  0
SOLID
  5
2D3C
  8
1
  6
CONTINUOUS
 62
     2
 10
-8.9231314849606598
 20
153.2953187976197
 30
0.0
 11
-10.51224762173698
 21
153.2953187976197
 31
0.0
 12
-10.49772391217447
 22
153.21996263677471
 32
0.0
 13
-10.49772391217447
 23
153.21996263677471
 33
0.0
210
0.0
220
0.0
230
-1.0
  0
SOLID
  5
2D3D
  8
1
  6
CONTINUOUS
 62
     2
 10
-8.9303271258683452
 20
153.21996263677471
 30
0.0
 11
-10.48346446257011
 21
153.14597758678991
 31
0.0
 12
-8.9520510966252562
 22
153.14597758678991
 32
0.0
 13
-8.9520510966252562
 23
153.14597758678991
 33
0.0
210
0.0
220
0.0
230
-1.0
  0
SOLID
  5
2D3E
  8
1
  6
CONTINUOUS
 62
     2
 10
-8.9303271258683452
 20
153.21996263677471
 30
0.0
 11
-10.49772391217447
 21
153.21996263677471
 31
0.0
 12
-10.48346446257011
 22
153.14597758678991
 32
0.0
 13
-10.48346446257011
 23
153.14597758678991
 33
0.0
210
0.0
220
0.0
230
-1.0
  0
SOLID
  5
2D3F
  8
1
  6
CONTINUOUS
 62
     2
 10
-8.9520510966252562
 20
153.14597758678991
 30
0.0
 11
-10.454662462118639
 21
153.07403366773471
 31
0.0
 12
-8.9731757372656524
 22
153.07403366773471
 32
0.0
 13
-8.9731757372656524
 23
153.07403366773471
 33
0.0
210
0.0
220
0.0
230
-1.0
  0
SOLID
  5
2D40
  8
1
  6
CONTINUOUS
 62
     2
 10
-8.9520510966252562
 20
153.14597758678991
 30
0.0
 11
-10.48346446257011
 21
153.14597758678991
 31
0.0
 12
-10.454662462118639
 22
153.07403366773471
 32
0.0
 13
-10.454662462118639
 23
153.07403366773471
 33
0.0
210
0.0
220
0.0
230
-1.0
  0
SOLID
  5
2D41
  8
1
  6
CONTINUOUS
 62
     2
 10
-8.9731757372656524
 20
153.07403366773471
 30
0.0
 11
-10.426938442602451
 21
153.00478241488111
 31
0.0
 12
-9.0088772394598156
 22
153.00478241488111
 32
0.0
 13
-9.0088772394598156
 23
153.00478241488111
 33
0.0
210
0.0
220
0.0
230
-1.0
  0
SOLID
  5
2D42
  8
1
  6
CONTINUOUS
 62
     2
 10
-8.9731757372656524
 20
153.07403366773471
 30
0.0
 11
-10.454662462118639
 21
153.07403366773471
 31
0.0
 12
-10.426938442602451
 22
153.00478241488111
 32
0.0
 13
-10.426938442602451
 23
153.00478241488111
 33
0.0
210
0.0
220
0.0
230
-1.0
  0
SOLID
  5
2D43
  8
1
  6
CONTINUOUS
 62
     2
 10
-9.0088772394598156
 20
153.00478241488111
 30
0.0
 11
-10.384566881142201
 21
152.9388509782986
 31
0.0
 12
-9.0428672574135653
 22
152.9388509782986
 32
0.0
 13
-9.0428672574135653
 23
152.9388509782986
 33
0.0
210
0.0
220
0.0
230
-1.0
  0
SOLID
  5
2D44
  8
1
  6
CONTINUOUS
 62
     2
 10
-9.0088772394598156
 20
153.00478241488111
 30
0.0
 11
-10.426938442602451
 21
153.00478241488111
 31
0.0
 12
-10.384566881142201
 22
152.9388509782986
 32
0.0
 13
-10.384566881142201
 23
152.9388509782986
 33
0.0
210
0.0
220
0.0
230
-1.0
  0
SOLID
  5
2D45
  8
1
  6
CONTINUOUS
 62
     2
 10
-9.0428672574135653
 20
152.9388509782986
 30
0.0
 11
-10.34471255947274
 21
152.87683644328649
 31
0.0
 12
-9.0916360267885086
 22
152.87683644328649
 32
0.0
 13
-9.0916360267885086
 23
152.87683644328649
 33
0.0
210
0.0
220
0.0
230
-1.0
  0
SOLID
  5
2D46
  8
1
  6
CONTINUOUS
 62
     2
 10
-9.0428672574135653
 20
152.9388509782986
 30
0.0
 11
-10.384566881142201
 21
152.9388509782986
 31
0.0
 12
-10.34471255947274
 22
152.87683644328649
 32
0.0
 13
-10.34471255947274
 23
152.87683644328649
 33
0.0
210
0.0
220
0.0
230
-1.0
  0
SOLID
  5
2D47
  8
1
  6
CONTINUOUS
 62
     2
 10
-9.0916360267885086
 20
152.87683644328649
 30
0.0
 11
-10.28985207501281
 21
152.81930042307729
 31
0.0
 12
-9.1368828531944537
 22
152.81930042307729
 32
0.0
 13
-9.1368828531944537
 23
152.81930042307729
 33
0.0
210
0.0
220
0.0
230
-1.0
  0
SOLID
  5
2D48
  8
1
  6
CONTINUOUS
 62
     2
 10
-9.0916360267885086
 20
152.87683644328649
 30
0.0
 11
-10.34471255947274
 21
152.87683644328649
 31
0.0
 12
-10.28985207501281
 22
152.81930042307729
 32
0.0
 13
-10.28985207501281
 23
152.81930042307729
 33
0.0
210
0.0
220
0.0
230
-1.0
  0
SOLID
  5
2D49
  8
1
  6
CONTINUOUS
 62
     2
 10
-9.1368828531944537
 20
152.81930042307729
 30
0.0
 11
-10.239758670834741
 21
152.76676397277959
 31
0.0
 12
-9.1975131489084312
 22
152.76676397277959
 32
0.0
 13
-9.1975131489084312
 23
152.76676397277959
 33
0.0
210
0.0
220
0.0
230
-1.0
  0
SOLID
  5
2D4A
  8
1
  6
CONTINUOUS
 62
     2
 10
-9.1368828531944537
 20
152.81930042307729
 30
0.0
 11
-10.28985207501281
 21
152.81930042307729
 31
0.0
 12
-10.239758670834741
 22
152.76676397277959
 32
0.0
 13
-10.239758670834741
 23
152.76676397277959
 33
0.0
210
0.0
220
0.0
230
-1.0
  0
SOLID
  5
2D4B
  8
1
  6
CONTINUOUS
 62
     2
 10
-9.1975131489084312
 20
152.76676397277959
 30
0.0
 11
-10.17367060005852
 21
152.71970287062271
 31
0.0
 12
-9.2518245560215515
 22
152.71970287062271
 32
0.0
 13
-9.2518245560215515
 23
152.71970287062271
 33
0.0
210
0.0
220
0.0
230
-1.0
  0
SOLID
  5
2D4C
  8
1
  6
CONTINUOUS
 62
     2
 10
-9.1975131489084312
 20
152.76676397277959
 30
0.0
 11
-10.239758670834741
 21
152.76676397277959
 31
0.0
 12
-10.17367060005852
 22
152.71970287062271
 32
0.0
 13
-10.17367060005852
 23
152.71970287062271
 33
0.0
210
0.0
220
0.0
230
-1.0
  0
SOLID
  5
2D4D
  8
1
  6
CONTINUOUS
 62
     2
 10
-9.2518245560215515
 20
152.71970287062271
 30
0.0
 11
-10.11587008367851
 21
152.67854330923549
 31
0.0
 12
-9.3231150075615652
 22
152.67854330923549
 32
0.0
 13
-9.3231150075615652
 23
152.67854330923549
 33
0.0
210
0.0
220
0.0
230
-1.0
  0
SOLID
  5
2D4E
  8
1
  6
CONTINUOUS
 62
     2
 10
-9.2518245560215515
 20
152.71970287062271
 30
0.0
 11
-10.17367060005852
 21
152.71970287062271
 31
0.0
 12
-10.11587008367851
 22
152.67854330923549
 32
0.0
 13
-10.11587008367851
 23
152.67854330923549
 33
0.0
210
0.0
220
0.0
230
-1.0
  0
SOLID
  5
2D4F
  8
1
  6
CONTINUOUS
 62
     2
 10
-9.3231150075615652
 20
152.67854330923549
 30
0.0
 11
-10.03948199050129
 21
152.6436580359794
 31
0.0
 12
-9.3835380732770002
 22
152.6436580359794
 32
0.0
 13
-9.3835380732770002
 23
152.6436580359794
 33
0.0
210
0.0
220
0.0
230
-1.0
  0
SOLID
  5
2D50
  8
1
  6
CONTINUOUS
 62
     2
 10
-9.3231150075615652
 20
152.67854330923549
 30
0.0
 11
-10.11587008367851
 21
152.67854330923549
 31
0.0
 12
-10.03948199050129
 22
152.6436580359794
 32
0.0
 13
-10.03948199050129
 23
152.6436580359794
 33
0.0
210
0.0
220
0.0
230
-1.0
  0
SOLID
  5
2D51
  8
1
  6
CONTINUOUS
 62
     2
 10
-9.3835380732770002
 20
152.6436580359794
 30
0.0
 11
-9.9775244543324462
 21
152.61536297729131
 31
0.0
 12
-9.4652912763563553
 22
152.61536297729131
 32
0.0
 13
-9.4652912763563553
 23
152.61536297729131
 33
0.0
210
0.0
220
0.0
230
-1.0
  0
SOLID
  5
2D52
  8
1
  6
CONTINUOUS
 62
     2
 10
-9.3835380732770002
 20
152.6436580359794
 30
0.0
 11
-10.03948199050129
 21
152.6436580359794
 31
0.0
 12
-9.9775244543324462
 22
152.61536297729131
 32
0.0
 13
-9.9775244543324462
 23
152.61536297729131
 33
0.0
210
0.0
220
0.0
230
-1.0
  0
SOLID
  5
2D53
  8
1
  6
CONTINUOUS
 62
     2
 10
-9.4652912763563553
 20
152.61536297729131
 30
0.0
 11
-9.8891121222388811
 21
152.59391437760419
 31
0.0
 12
-9.5272629352709686
 22
152.59391437760419
 32
0.0
 13
-9.5272629352709686
 23
152.59391437760419
 33
0.0
210
0.0
220
0.0
230
-1.0
  0
SOLID
  5
2D54
  8
1
  6
CONTINUOUS
 62
     2
 10
-9.4652912763563553
 20
152.61536297729131
 30
0.0
 11
-9.9775244543324462
 21
152.61536297729131
 31
0.0
 12
-9.8891121222388811
 22
152.59391437760419
 32
0.0
 13
-9.8891121222388811
 23
152.59391437760419
 33
0.0
210
0.0
220
0.0
230
-1.0
  0
SOLID
  5
2D55
  8
1
  6
CONTINUOUS
 62
     2
 10
-9.6274720728644763
 20
152.5795064787583
 30
0.0
 11
-9.8297219542971384
 21
152.5795064787583
 31
0.0
 12
-9.6778045510195163
 22
152.57226976091661
 32
0.0
 13
-9.6778045510195163
 23
152.57226976091661
 33
0.0
210
0.0
220
0.0
230
-1.0
  0
SOLID
  5
2D56
  8
1
  6
CONTINUOUS
 62
     2
 10
-9.5272629352709686
 20
152.59391437760419
 30
0.0
 11
-9.8297219542971384
 21
152.5795064787583
 31
0.0
 12
-9.6274720728644763
 22
152.5795064787583
 32
0.0
 13
-9.6274720728644763
 23
152.5795064787583
 33
0.0
210
0.0
220
0.0
230
-1.0
  0
SOLID
  5
2D57
  8
1
  6
CONTINUOUS
 62
     2
 10
-9.5272629352709686
 20
152.59391437760419
 30
0.0
 11
-9.8891121222388811
 21
152.59391437760419
 31
0.0
 12
-9.8297219542971384
 22
152.5795064787583
 32
0.0
 13
-9.8297219542971384
 23
152.5795064787583
 33
0.0
210
0.0
220
0.0
230
-1.0
  0
LINE
  5
2D58
  8
1
  6
CONTINUOUS
 62
     2
 10
9.6778045510195163
 20
154.17045750360941
 30
0.0
 11
9.8297219542971384
 21
154.16322078576781
 31
0.0
  0
LINE
  5
2D59
  8
1
  6
CONTINUOUS
 62
     2
 10
9.6274720728644763
 20
154.16322078576781
 30
0.0
 11
9.6778045510195163
 21
154.17045750360941
 31
0.0
  0
LINE
  5
2D5A
  8
1
  6
CONTINUOUS
 62
     2
 10
9.5272629352709686
 20
154.14881288692189
 30
0.0
 11
9.6274720728644763
 21
154.16322078576781
 31
0.0
  0
LINE
  5
2D5B
  8
1
  6
CONTINUOUS
 62
     2
 10
9.8297219542971384
 20
154.16322078576781
 30
0.0
 11
9.8891121222388811
 21
154.14881288692189
 31
0.0
  0
LINE
  5
2D5C
  8
1
  6
CONTINUOUS
 62
     2
 10
9.465291276356357
 20
154.12736428723471
 30
0.0
 11
9.5272629352709686
 21
154.14881288692189
 31
0.0
  0
LINE
  5
2D5D
  8
1
  6
CONTINUOUS
 62
     2
 10
9.8891121222388811
 20
154.14881288692189
 30
0.0
 11
9.9775244543324462
 21
154.12736428723471
 31
0.0
  0
LINE
  5
2D5E
  8
1
  6
CONTINUOUS
 62
     2
 10
9.3835380732770002
 20
154.0990692285466
 30
0.0
 11
9.465291276356357
 21
154.12736428723471
 31
0.0
  0
LINE
  5
2D5F
  8
1
  6
CONTINUOUS
 62
     2
 10
9.9775244543324462
 20
154.12736428723471
 30
0.0
 11
10.03948199050129
 21
154.0990692285466
 31
0.0
  0
LINE
  5
2D60
  8
1
  6
CONTINUOUS
 62
     2
 10
9.3231150075615652
 20
154.06418395529059
 30
0.0
 11
9.3835380732770002
 21
154.0990692285466
 31
0.0
  0
LINE
  5
2D61
  8
1
  6
CONTINUOUS
 62
     2
 10
10.03948199050129
 20
154.0990692285466
 30
0.0
 11
10.11587008367851
 21
154.06418395529059
 31
0.0
  0
LINE
  5
2D62
  8
1
  6
CONTINUOUS
 62
     2
 10
9.2518245560215515
 20
154.02302439390331
 30
0.0
 11
9.3231150075615652
 21
154.06418395529059
 31
0.0
  0
LINE
  5
2D63
  8
1
  6
CONTINUOUS
 62
     2
 10
10.11587008367851
 20
154.06418395529059
 30
0.0
 11
10.17367060005852
 21
154.02302439390331
 31
0.0
  0
LINE
  5
2D64
  8
1
  6
CONTINUOUS
 62
     2
 10
9.1975131489084312
 20
153.97596329174641
 30
0.0
 11
9.2518245560215515
 21
154.02302439390331
 31
0.0
  0
LINE
  5
2D65
  8
1
  6
CONTINUOUS
 62
     2
 10
10.17367060005852
 20
154.02302439390331
 30
0.0
 11
10.239758670834741
 21
153.97596329174641
 31
0.0
  0
LINE
  5
2D66
  8
1
  6
CONTINUOUS
 62
     2
 10
9.1368828531944537
 20
153.9234268414487
 30
0.0
 11
9.1975131489084312
 21
153.97596329174641
 31
0.0
  0
LINE
  5
2D67
  8
1
  6
CONTINUOUS
 62
     2
 10
10.239758670834741
 20
153.97596329174641
 30
0.0
 11
10.28985207501281
 21
153.9234268414487
 31
0.0
  0
LINE
  5
2D68
  8
1
  6
CONTINUOUS
 62
     2
 10
9.0916360267885086
 20
153.8658908212395
 30
0.0
 11
9.1368828531944537
 21
153.9234268414487
 31
0.0
  0
LINE
  5
2D69
  8
1
  6
CONTINUOUS
 62
     2
 10
10.28985207501281
 20
153.9234268414487
 30
0.0
 11
10.34471255947274
 21
153.8658908212395
 31
0.0
  0
LINE
  5
2D6A
  8
1
  6
CONTINUOUS
 62
     2
 10
9.0428672574135653
 20
153.80387628622751
 30
0.0
 11
9.0916360267885086
 21
153.8658908212395
 31
0.0
  0
LINE
  5
2D6B
  8
1
  6
CONTINUOUS
 62
     2
 10
10.34471255947274
 20
153.8658908212395
 30
0.0
 11
10.384566881142201
 21
153.80387628622751
 31
0.0
  0
LINE
  5
2D6C
  8
1
  6
CONTINUOUS
 62
     2
 10
9.0088772394598156
 20
153.737944849645
 30
0.0
 11
9.0428672574135653
 21
153.80387628622751
 31
0.0
  0
LINE
  5
2D6D
  8
1
  6
CONTINUOUS
 62
     2
 10
10.384566881142201
 20
153.80387628622751
 30
0.0
 11
10.426938442602451
 21
153.737944849645
 31
0.0
  0
LINE
  5
2D6E
  8
1
  6
CONTINUOUS
 62
     2
 10
8.9731757372656524
 20
153.66869359679129
 30
0.0
 11
9.0088772394598156
 21
153.737944849645
 31
0.0
  0
LINE
  5
2D6F
  8
1
  6
CONTINUOUS
 62
     2
 10
10.426938442602451
 20
153.737944849645
 30
0.0
 11
10.454662462118639
 21
153.66869359679129
 31
0.0
  0
LINE
  5
2D70
  8
1
  6
CONTINUOUS
 62
     2
 10
8.9520510966252491
 20
153.59674967773611
 30
0.0
 11
8.9731757372656524
 21
153.66869359679129
 31
0.0
  0
LINE
  5
2D71
  8
1
  6
CONTINUOUS
 62
     2
 10
10.454662462118639
 20
153.66869359679129
 30
0.0
 11
10.48346446257011
 21
153.59674967773611
 31
0.0
  0
LINE
  5
2D72
  8
1
  6
CONTINUOUS
 62
     2
 10
8.9303271258683452
 20
153.5227646277514
 30
0.0
 11
8.9520510966252491
 21
153.59674967773611
 31
0.0
  0
LINE
  5
2D73
  8
1
  6
CONTINUOUS
 62
     2
 10
10.48346446257011
 20
153.59674967773611
 30
0.0
 11
10.49772391217447
 21
153.5227646277514
 31
0.0
  0
LINE
  5
2D74
  8
1
  6
CONTINUOUS
 62
     2
 10
8.9231314849606598
 20
153.44740846690641
 30
0.0
 11
8.9303271258683452
 21
153.5227646277514
 31
0.0
  0
LINE
  5
2D75
  8
1
  6
CONTINUOUS
 62
     2
 10
10.49772391217447
 20
153.5227646277514
 30
0.0
 11
10.51224762173698
 21
153.44740846690641
 31
0.0
  0
LINE
  5
2D76
  8
1
  6
CONTINUOUS
 62
     2
 10
8.9158700836785094
 20
153.37136363226301
 30
0.0
 11
8.9231314849606598
 21
153.44740846690641
 31
0.0
  0
LINE
  5
2D77
  8
1
  6
CONTINUOUS
 62
     2
 10
10.51224762173698
 20
153.44740846690641
 30
0.0
 11
10.51224762173698
 21
153.37136363226301
 31
0.0
  0
LINE
  5
2D78
  8
1
  6
CONTINUOUS
 62
     2
 10
8.9231314849606598
 20
153.2953187976197
 30
0.0
 11
8.9158700836785094
 21
153.37136363226301
 31
0.0
  0
LINE
  5
2D79
  8
1
  6
CONTINUOUS
 62
     2
 10
10.51224762173698
 20
153.37136363226301
 30
0.0
 11
10.51224762173698
 21
153.2953187976197
 31
0.0
  0
LINE
  5
2D7A
  8
1
  6
CONTINUOUS
 62
     2
 10
8.9303271258683452
 20
153.21996263677471
 30
0.0
 11
8.9231314849606598
 21
153.2953187976197
 31
0.0
  0
LINE
  5
2D7B
  8
1
  6
CONTINUOUS
 62
     2
 10
10.51224762173698
 20
153.2953187976197
 30
0.0
 11
10.49772391217447
 21
153.21996263677471
 31
0.0
  0
LINE
  5
2D7C
  8
1
  6
CONTINUOUS
 62
     2
 10
8.9520510966252562
 20
153.14597758678991
 30
0.0
 11
8.9303271258683452
 21
153.21996263677471
 31
0.0
  0
LINE
  5
2D7D
  8
1
  6
CONTINUOUS
 62
     2
 10
10.49772391217447
 20
153.21996263677471
 30
0.0
 11
10.48346446257011
 21
153.14597758678991
 31
0.0
  0
LINE
  5
2D7E
  8
1
  6
CONTINUOUS
 62
     2
 10
8.9731757372656524
 20
153.07403366773471
 30
0.0
 11
8.9520510966252562
 21
153.14597758678991
 31
0.0
  0
LINE
  5
2D7F
  8
1
  6
CONTINUOUS
 62
     2
 10
10.48346446257011
 20
153.14597758678991
 30
0.0
 11
10.454662462118639
 21
153.07403366773471
 31
0.0
  0
LINE
  5
2D80
  8
1
  6
CONTINUOUS
 62
     2
 10
9.0088772394598156
 20
153.00478241488111
 30
0.0
 11
8.9731757372656524
 21
153.07403366773471
 31
0.0
  0
LINE
  5
2D81
  8
1
  6
CONTINUOUS
 62
     2
 10
10.454662462118639
 20
153.07403366773471
 30
0.0
 11
10.426938442602451
 21
153.00478241488111
 31
0.0
  0
LINE
  5
2D82
  8
1
  6
CONTINUOUS
 62
     2
 10
9.0428672574135653
 20
152.9388509782986
 30
0.0
 11
9.0088772394598156
 21
153.00478241488111
 31
0.0
  0
LINE
  5
2D83
  8
1
  6
CONTINUOUS
 62
     2
 10
10.426938442602451
 20
153.00478241488111
 30
0.0
 11
10.384566881142201
 21
152.9388509782986
 31
0.0
  0
LINE
  5
2D84
  8
1
  6
CONTINUOUS
 62
     2
 10
9.0916360267885086
 20
152.87683644328649
 30
0.0
 11
9.0428672574135653
 21
152.9388509782986
 31
0.0
  0
LINE
  5
2D85
  8
1
  6
CONTINUOUS
 62
     2
 10
10.384566881142201
 20
152.9388509782986
 30
0.0
 11
10.34471255947274
 21
152.87683644328649
 31
0.0
  0
LINE
  5
2D86
  8
1
  6
CONTINUOUS
 62
     2
 10
9.1368828531944537
 20
152.81930042307729
 30
0.0
 11
9.0916360267885086
 21
152.87683644328649
 31
0.0
  0
LINE
  5
2D87
  8
1
  6
CONTINUOUS
 62
     2
 10
10.34471255947274
 20
152.87683644328649
 30
0.0
 11
10.28985207501281
 21
152.81930042307729
 31
0.0
  0
LINE
  5
2D88
  8
1
  6
CONTINUOUS
 62
     2
 10
9.1975131489084312
 20
152.76676397277959
 30
0.0
 11
9.1368828531944537
 21
152.81930042307729
 31
0.0
  0
LINE
  5
2D89
  8
1
  6
CONTINUOUS
 62
     2
 10
10.28985207501281
 20
152.81930042307729
 30
0.0
 11
10.239758670834741
 21
152.76676397277959
 31
0.0
  0
LINE
  5
2D8A
  8
1
  6
CONTINUOUS
 62
     2
 10
9.2518245560215515
 20
152.71970287062271
 30
0.0
 11
9.1975131489084312
 21
152.76676397277959
 31
0.0
  0
LINE
  5
2D8B
  8
1
  6
CONTINUOUS
 62
     2
 10
10.239758670834741
 20
152.76676397277959
 30
0.0
 11
10.17367060005852
 21
152.71970287062271
 31
0.0
  0
LINE
  5
2D8C
  8
1
  6
CONTINUOUS
 62
     2
 10
9.3231150075615652
 20
152.67854330923549
 30
0.0
 11
9.2518245560215515
 21
152.71970287062271
 31
0.0
  0
LINE
  5
2D8D
  8
1
  6
CONTINUOUS
 62
     2
 10
10.17367060005852
 20
152.71970287062271
 30
0.0
 11
10.11587008367851
 21
152.67854330923549
 31
0.0
  0
LINE
  5
2D8E
  8
1
  6
CONTINUOUS
 62
     2
 10
9.3835380732770002
 20
152.6436580359794
 30
0.0
 11
9.3231150075615652
 21
152.67854330923549
 31
0.0
  0
LINE
  5
2D8F
  8
1
  6
CONTINUOUS
 62
     2
 10
10.11587008367851
 20
152.67854330923549
 30
0.0
 11
10.03948199050129
 21
152.6436580359794
 31
0.0
  0
LINE
  5
2D90
  8
1
  6
CONTINUOUS
 62
     2
 10
9.4652912763563553
 20
152.61536297729131
 30
0.0
 11
9.3835380732770002
 21
152.6436580359794
 31
0.0
  0
LINE
  5
2D91
  8
1
  6
CONTINUOUS
 62
     2
 10
10.03948199050129
 20
152.6436580359794
 30
0.0
 11
9.9775244543324462
 21
152.61536297729131
 31
0.0
  0
LINE
  5
2D92
  8
1
  6
CONTINUOUS
 62
     2
 10
9.5272629352709686
 20
152.59391437760419
 30
0.0
 11
9.4652912763563553
 21
152.61536297729131
 31
0.0
  0
LINE
  5
2D93
  8
1
  6
CONTINUOUS
 62
     2
 10
9.9775244543324462
 20
152.61536297729131
 30
0.0
 11
9.8891121222388811
 21
152.59391437760419
 31
0.0
  0
LINE
  5
2D94
  8
1
  6
CONTINUOUS
 62
     2
 10
9.8297219542971384
 20
152.5795064787583
 30
0.0
 11
9.6778045510195163
 21
152.57226976091661
 31
0.0
  0
LINE
  5
2D95
  8
1
  6
CONTINUOUS
 62
     2
 10
9.6778045510195163
 20
152.57226976091661
 30
0.0
 11
9.6274720728644763
 21
152.5795064787583
 31
0.0
  0
LINE
  5
2D96
  8
1
  6
CONTINUOUS
 62
     2
 10
9.6274720728644763
 20
152.5795064787583
 30
0.0
 11
9.5272629352709686
 21
152.59391437760419
 31
0.0
  0
LINE
  5
2D97
  8
1
  6
CONTINUOUS
 62
     2
 10
9.8891121222388811
 20
152.59391437760419
 30
0.0
 11
9.8297219542971384
 21
152.5795064787583
 31
0.0
  0
ENDBLK
  5
2D99
  8
0
  0
BLOCK
  8
0
  2
*U41
 70
     1
 10
0.0
 20
0.0
 30
0.0
  3
*U41
  1

  0
TEXT
  5
2D9B
  8
1
 62
     3
 10
0.0000064401049258
 20
154.37136363226301
 30
0.0
 40
3.2000000000000002
  1
3
 50
0.0001388888891441
 41
0.63
  7
CONVERTER_1
  0
ENDBLK
  5
2D9D
  8
0
  0
BLOCK
  8
0
  2
*U42
 70
     1
 10
0.0
 20
0.0
 30
0.0
  3
*U42
  1

  0
TEXT
  5
2D9F
  8
1
 62
     3
 10
120.3405665071129
 20
143.1658993075383
 30
0.0
 40
3.2000000000000002
  1
30\U+00B0
 50
315.00000000000023
 41
0.63
  7
CONVERTER_1
  0
ENDBLK
  5
2DA1
  8
0
  0
BLOCK
  8
0
  2
*U43
 70
     1
 10
0.0
 20
0.0
 30
0.0
  3
*U43
  1

  0
TEXT
  5
2DA3
  8
1
 62
     3
 10
122.00600200147851
 20
72.753207114453673
 30
0.0
 40
3.2000000000000002
  1
15\U+00B0
 50
45.000000000000881
 41
0.63
  7
CONVERTER_1
  0
ENDBLK
  5
2DA5
  8
0
  0
BLOCK
  8
0
  2
*U44
 70
     1
 10
0.0
 20
0.0
 30
0.0
  3
*U44
  1

  0
POLYLINE
  5
2DA7
  8
1
  6
CONTINUOUS
 62
     2
 66
     1
 10
0.0
 20
0.0
 30
0.0
  0
VERTEX
  5
2DA8
  8
1
  6
CONTINUOUS
 62
     2
 10
157.6418249840047
 20
96.907284705788825
 30
0.0
  0
VERTEX
  5
2DA9
  8
1
  6
CONTINUOUS
 62
     2
 10
174.51394936820259
 20
56.99130318089999
 30
0.0
  0
VERTEX
  5
2DAA
  8
1
  6
CONTINUOUS
 62
     2
 10
189.58450522304281
 20
56.99130318089999
 30
0.0
  0
SEQEND
  5
2DAB
  8
1
  6
CONTINUOUS
 62
     2
  0
ENDBLK
  5
2DAD
  8
0
  0
BLOCK
  8
0
  2
*U45
 70
     1
 10
0.0
 20
0.0
 30
0.0
  3
*U45
  1

  0
POLYLINE
  5
2DAF
  8
1
  6
CONTINUOUS
 62
     2
 66
     1
 10
0.0
 20
0.0
 30
0.0
  0
VERTEX
  5
2DB0
  8
1
  6
CONTINUOUS
 62
     2
 10
156.2838333532508
 20
134.82597802375241
 30
0.0
  0
VERTEX
  5
2DB1
  8
1
  6
CONTINUOUS
 62
     2
 10
169.5362066818046
 20
157.77976194967869
 30
0.0
  0
VERTEX
  5
2DB2
  8
1
  6
CONTINUOUS
 62
     2
 10
186.7451251344427
 20
157.77976194967869
 30
0.0
  0
SEQEND
  5
2DB3
  8
1
  6
CONTINUOUS
 62
     2
  0
ENDBLK
  5
2DB5
  8
0
  0
BLOCK
  8
0
  2
*U46
 70
     1
 10
0.0
 20
0.0
 30
0.0
  3
*U46
  1

  0
TEXT
  5
2DB7
  8
1
 62
     3
 10
173.56379310927261
 20
158.7084876634263
 30
0.0
 40
3.2000000000000002
  1
2-\U+03C66穴
 41
0.6230000000000001
  7
CONVERTER_3
  0
ENDBLK
  5
2DB9
  8
0
  0
BLOCK
  8
0
  2
*U47
 70
     1
 10
0.0
 20
0.0
 30
0.0
  3
*U47
  1

  0
TEXT
  5
2DBB
  8
1
 62
     3
 10
177.40613788349199
 20
58.1655153427794
 30
0.0
 40
3.2000000000000002
  1
\U+03C617穴
 41
0.6230000000000001
  7
CONVERTER_3
  0
ENDBLK
  5
2DBD
  8
0
  0
BLOCK
  8
0
  2
*U48
 70
     1
 10
0.0
 20
0.0
 30
0.0
  3
*U48
  1

  0
SOLID
  5
2DBF
  8
1
  6
CONTINUOUS
 62
     2
 10
-75.253239717125155
 20
151.90192721545031
 30
0.0
 11
-75.405157120402791
 21
151.89469049760871
 31
0.0
 12
-75.202907238970127
 22
151.89469049760871
 32
0.0
 13
-75.202907238970127
 23
151.89469049760871
 33
0.0
210
0.0
220
0.0
230
-1.0
  0
SOLID
  5
2DC0
  8
1
  6
CONTINUOUS
 62
     2
 10
-75.202907238970127
 20
151.89469049760871
 30
0.0
 11
-75.464547288344534
 21
151.88028259876279
 31
0.0
 12
-75.102698101376603
 22
151.88028259876279
 32
0.0
 13
-75.102698101376603
 23
151.88028259876279
 33
0.0
210
0.0
220
0.0
230
-1.0
  0
SOLID
  5
2DC1
  8
1
  6
CONTINUOUS
 62
     2
 10
-75.202907238970127
 20
151.89469049760871
 30
0.0
 11
-75.405157120402791
 21
151.89469049760871
 31
0.0
 12
-75.464547288344534
 22
151.88028259876279
 32
0.0
 13
-75.464547288344534
 23
151.88028259876279
 33
0.0
210
0.0
220
0.0
230
-1.0
  0
SOLID
  5
2DC2
  8
1
  6
CONTINUOUS
 62
     2
 10
-75.102698101376603
 20
151.88028259876279
 30
0.0
 11
-75.552959620438102
 21
151.8588339990757
 31
0.0
 12
-75.040726442462002
 22
151.8588339990757
 32
0.0
 13
-75.040726442462002
 23
151.8588339990757
 33
0.0
210
0.0
220
0.0
230
-1.0
  0
SOLID
  5
2DC3
  8
1
  6
CONTINUOUS
 62
     2
 10
-75.102698101376603
 20
151.88028259876279
 30
0.0
 11
-75.464547288344534
 21
151.88028259876279
 31
0.0
 12
-75.552959620438102
 22
151.8588339990757
 32
0.0
 13
-75.552959620438102
 23
151.8588339990757
 33
0.0
210
0.0
220
0.0
230
-1.0
  0
SOLID
  5
2DC4
  8
1
  6
CONTINUOUS
 62
     2
 10
-75.040726442462002
 20
151.8588339990757
 30
0.0
 11
-75.61491715660695
 21
151.83053894038761
 31
0.0
 12
-74.958973239382644
 22
151.83053894038761
 32
0.0
 13
-74.958973239382644
 23
151.83053894038761
 33
0.0
210
0.0
220
0.0
230
-1.0
  0
SOLID
  5
2DC5
  8
1
  6
CONTINUOUS
 62
     2
 10
-75.040726442462002
 20
151.8588339990757
 30
0.0
 11
-75.552959620438102
 21
151.8588339990757
 31
0.0
 12
-75.61491715660695
 22
151.83053894038761
 32
0.0
 13
-75.61491715660695
 23
151.83053894038761
 33
0.0
210
0.0
220
0.0
230
-1.0
  0
SOLID
  5
2DC6
  8
1
  6
CONTINUOUS
 62
     2
 10
-74.958973239382644
 20
151.83053894038761
 30
0.0
 11
-75.691305249784165
 21
151.79565366713149
 31
0.0
 12
-74.898550173667203
 22
151.79565366713149
 32
0.0
 13
-74.898550173667203
 23
151.79565366713149
 33
0.0
210
0.0
220
0.0
230
-1.0
  0
SOLID
  5
2DC7
  8
1
  6
CONTINUOUS
 62
     2
 10
-74.958973239382644
 20
151.83053894038761
 30
0.0
 11
-75.61491715660695
 21
151.83053894038761
 31
0.0
 12
-75.691305249784165
 22
151.79565366713149
 32
0.0
 13
-75.691305249784165
 23
151.79565366713149
 33
0.0
210
0.0
220
0.0
230
-1.0
  0
SOLID
  5
2DC8
  8
1
  6
CONTINUOUS
 62
     2
 10
-74.898550173667203
 20
151.79565366713149
 30
0.0
 11
-75.749105766164163
 21
151.75449410574419
 31
0.0
 12
-74.827259722127195
 22
151.75449410574419
 32
0.0
 13
-74.827259722127195
 23
151.75449410574419
 33
0.0
210
0.0
220
0.0
230
-1.0
  0
SOLID
  5
2DC9
  8
1
  6
CONTINUOUS
 62
     2
 10
-74.898550173667203
 20
151.79565366713149
 30
0.0
 11
-75.691305249784165
 21
151.79565366713149
 31
0.0
 12
-75.749105766164163
 22
151.75449410574419
 32
0.0
 13
-75.749105766164163
 23
151.75449410574419
 33
0.0
210
0.0
220
0.0
230
-1.0
  0
SOLID
  5
2DCA
  8
1
  6
CONTINUOUS
 62
     2
 10
-74.827259722127195
 20
151.75449410574419
 30
0.0
 11
-75.815193836940381
 21
151.7074330035874
 31
0.0
 12
-74.772948315014077
 22
151.7074330035874
 32
0.0
 13
-74.772948315014077
 23
151.7074330035874
 33
0.0
210
0.0
220
0.0
230
-1.0
  0
SOLID
  5
2DCB
  8
1
  6
CONTINUOUS
 62
     2
 10
-74.827259722127195
 20
151.75449410574419
 30
0.0
 11
-75.749105766164163
 21
151.75449410574419
 31
0.0
 12
-75.815193836940381
 22
151.7074330035874
 32
0.0
 13
-75.815193836940381
 23
151.7074330035874
 33
0.0
210
0.0
220
0.0
230
-1.0
  0
SOLID
  5
2DCC
  8
1
  6
CONTINUOUS
 62
     2
 10
-74.772948315014077
 20
151.7074330035874
 30
0.0
 11
-75.865287241118452
 21
151.6548965532896
 31
0.0
 12
-74.712318019300085
 22
151.6548965532896
 32
0.0
 13
-74.712318019300085
 23
151.6548965532896
 33
0.0
210
0.0
220
0.0
230
-1.0
  0
SOLID
  5
2DCD
  8
1
  6
CONTINUOUS
 62
     2
 10
-74.772948315014077
 20
151.7074330035874
 30
0.0
 11
-75.815193836940381
 21
151.7074330035874
 31
0.0
 12
-75.865287241118452
 22
151.6548965532896
 32
0.0
 13
-75.865287241118452
 23
151.6548965532896
 33
0.0
210
0.0
220
0.0
230
-1.0
  0
SOLID
  5
2DCE
  8
1
  6
CONTINUOUS
 62
     2
 10
-74.712318019300085
 20
151.6548965532896
 30
0.0
 11
-75.920147725578374
 21
151.5973605330804
 31
0.0
 12
-74.667071192894156
 22
151.5973605330804
 32
0.0
 13
-74.667071192894156
 23
151.5973605330804
 33
0.0
210
0.0
220
0.0
230
-1.0
  0
SOLID
  5
2DCF
  8
1
  6
CONTINUOUS
 62
     2
 10
-74.712318019300085
 20
151.6548965532896
 30
0.0
 11
-75.865287241118452
 21
151.6548965532896
 31
0.0
 12
-75.920147725578374
 22
151.5973605330804
 32
0.0
 13
-75.920147725578374
 23
151.5973605330804
 33
0.0
210
0.0
220
0.0
230
-1.0
  0
SOLID
  5
2DD0
  8
1
  6
CONTINUOUS
 62
     2
 10
-74.667071192894156
 20
151.5973605330804
 30
0.0
 11
-75.960002047247855
 21
151.53534599806841
 31
0.0
 12
-74.618302423519211
 22
151.53534599806841
 32
0.0
 13
-74.618302423519211
 23
151.53534599806841
 33
0.0
210
0.0
220
0.0
230
-1.0
  0
SOLID
  5
2DD1
  8
1
  6
CONTINUOUS
 62
     2
 10
-74.667071192894156
 20
151.5973605330804
 30
0.0
 11
-75.920147725578374
 21
151.5973605330804
 31
0.0
 12
-75.960002047247855
 22
151.53534599806841
 32
0.0
 13
-75.960002047247855
 23
151.53534599806841
 33
0.0
210
0.0
220
0.0
230
-1.0
  0
SOLID
  5
2DD2
  8
1
  6
CONTINUOUS
 62
     2
 10
-74.618302423519211
 20
151.53534599806841
 30
0.0
 11
-76.002373608708098
 21
151.46941456148591
 31
0.0
 12
-74.584312405565456
 22
151.46941456148591
 32
0.0
 13
-74.584312405565456
 23
151.46941456148591
 33
0.0
210
0.0
220
0.0
230
-1.0
  0
SOLID
  5
2DD3
  8
1
  6
CONTINUOUS
 62
     2
 10
-74.618302423519211
 20
151.53534599806841
 30
0.0
 11
-75.960002047247855
 21
151.53534599806841
 31
0.0
 12
-76.002373608708098
 22
151.46941456148591
 32
0.0
 13
-76.002373608708098
 23
151.46941456148591
 33
0.0
210
0.0
220
0.0
230
-1.0
  0
SOLID
  5
2DD4
  8
1
  6
CONTINUOUS
 62
     2
 10
-74.584312405565456
 20
151.46941456148591
 30
0.0
 11
-76.030097628224283
 21
151.40016330863219
 31
0.0
 12
-74.548610903371284
 22
151.40016330863219
 32
0.0
 13
-74.548610903371284
 23
151.40016330863219
 33
0.0
210
0.0
220
0.0
230
-1.0
  0
SOLID
  5
2DD5
  8
1
  6
CONTINUOUS
 62
     2
 10
-74.584312405565456
 20
151.46941456148591
 30
0.0
 11
-76.002373608708098
 21
151.46941456148591
 31
0.0
 12
-76.030097628224283
 22
151.40016330863219
 32
0.0
 13
-76.030097628224283
 23
151.40016330863219
 33
0.0
210
0.0
220
0.0
230
-1.0
  0
SOLID
  5
2DD6
  8
1
  6
CONTINUOUS
 62
     2
 10
-74.548610903371284
 20
151.40016330863219
 30
0.0
 11
-76.058899628675761
 21
151.3282193895771
 31
0.0
 12
-74.527486262730903
 22
151.3282193895771
 32
0.0
 13
-74.527486262730903
 23
151.3282193895771
 33
0.0
210
0.0
220
0.0
230
-1.0
  0
SOLID
  5
2DD7
  8
1
  6
CONTINUOUS
 62
     2
 10
-74.548610903371284
 20
151.40016330863219
 30
0.0
 11
-76.030097628224283
 21
151.40016330863219
 31
0.0
 12
-76.058899628675761
 22
151.3282193895771
 32
0.0
 13
-76.058899628675761
 23
151.3282193895771
 33
0.0
210
0.0
220
0.0
230
-1.0
  0
SOLID
  5
2DD8
  8
1
  6
CONTINUOUS
 62
     2
 10
-74.527486262730903
 20
151.3282193895771
 30
0.0
 11
-76.073159078280113
 21
151.2542343395923
 31
0.0
 12
-74.505762291973994
 22
151.2542343395923
 32
0.0
 13
-74.505762291973994
 23
151.2542343395923
 33
0.0
210
0.0
220
0.0
230
-1.0
  0
SOLID
  5
2DD9
  8
1
  6
CONTINUOUS
 62
     2
 10
-74.527486262730903
 20
151.3282193895771
 30
0.0
 11
-76.058899628675761
 21
151.3282193895771
 31
0.0
 12
-76.073159078280113
 22
151.2542343395923
 32
0.0
 13
-76.073159078280113
 23
151.2542343395923
 33
0.0
210
0.0
220
0.0
230
-1.0
  0
SOLID
  5
2DDA
  8
1
  6
CONTINUOUS
 62
     2
 10
-74.505762291973994
 20
151.2542343395923
 30
0.0
 11
-76.087682787842624
 21
151.17887817874731
 31
0.0
 12
-74.498566651066312
 22
151.17887817874731
 32
0.0
 13
-74.498566651066312
 23
151.17887817874731
 33
0.0
210
0.0
220
0.0
230
-1.0
  0
SOLID
  5
2DDB
  8
1
  6
CONTINUOUS
 62
     2
 10
-74.505762291973994
 20
151.2542343395923
 30
0.0
 11
-76.073159078280113
 21
151.2542343395923
 31
0.0
 12
-76.087682787842624
 22
151.17887817874731
 32
0.0
 13
-76.087682787842624
 23
151.17887817874731
 33
0.0
210
0.0
220
0.0
230
-1.0
  0
SOLID
  5
2DDC
  8
1
  6
CONTINUOUS
 62
     2
 10
-74.498566651066312
 20
151.17887817874731
 30
0.0
 11
-76.087682787842624
 21
151.10283334410391
 31
0.0
 12
-74.491305249784162
 22
151.10283334410391
 32
0.0
 13
-74.491305249784162
 23
151.10283334410391
 33
0.0
210
0.0
220
0.0
230
-1.0
  0
SOLID
  5
2DDD
  8
1
  6
CONTINUOUS
 62
     2
 10
-74.498566651066312
 20
151.17887817874731
 30
0.0
 11
-76.087682787842624
 21
151.17887817874731
 31
0.0
 12
-76.087682787842624
 22
151.10283334410391
 32
0.0
 13
-76.087682787842624
 23
151.10283334410391
 33
0.0
210
0.0
220
0.0
230
-1.0
  0
SOLID
  5
2DDE
  8
1
  6
CONTINUOUS
 62
     2
 10
-74.491305249784162
 20
151.10283334410391
 30
0.0
 11
-76.087682787842624
 21
151.0267885094606
 31
0.0
 12
-74.498566651066312
 22
151.0267885094606
 32
0.0
 13
-74.498566651066312
 23
151.0267885094606
 33
0.0
210
0.0
220
0.0
230
-1.0
  0
SOLID
  5
2DDF
  8
1
  6
CONTINUOUS
 62
     2
 10
-74.491305249784162
 20
151.10283334410391
 30
0.0
 11
-76.087682787842624
 21
151.10283334410391
 31
0.0
 12
-76.087682787842624
 22
151.0267885094606
 32
0.0
 13
-76.087682787842624
 23
151.0267885094606
 33
0.0
210
0.0
220
0.0
230
-1.0
  0
SOLID
  5
2DE0
  8
1
  6
CONTINUOUS
 62
     2
 10
-74.498566651066312
 20
151.0267885094606
 30
0.0
 11
-76.073159078280113
 21
150.95143234861561
 31
0.0
 12
-74.505762291973994
 22
150.95143234861561
 32
0.0
 13
-74.505762291973994
 23
150.95143234861561
 33
0.0
210
0.0
220
0.0
230
-1.0
  0
SOLID
  5
2DE1
  8
1
  6
CONTINUOUS
 62
     2
 10
-74.498566651066312
 20
151.0267885094606
 30
0.0
 11
-76.087682787842624
 21
151.0267885094606
 31
0.0
 12
-76.073159078280113
 22
150.95143234861561
 32
0.0
 13
-76.073159078280113
 23
150.95143234861561
 33
0.0
210
0.0
220
0.0
230
-1.0
  0
SOLID
  5
2DE2
  8
1
  6
CONTINUOUS
 62
     2
 10
-74.505762291973994
 20
150.95143234861561
 30
0.0
 11
-76.058899628675761
 21
150.87744729863081
 31
0.0
 12
-74.527486262730903
 22
150.87744729863081
 32
0.0
 13
-74.527486262730903
 23
150.87744729863081
 33
0.0
210
0.0
220
0.0
230
-1.0
  0
SOLID
  5
2DE3
  8
1
  6
CONTINUOUS
 62
     2
 10
-74.505762291973994
 20
150.95143234861561
 30
0.0
 11
-76.073159078280113
 21
150.95143234861561
 31
0.0
 12
-76.058899628675761
 22
150.87744729863081
 32
0.0
 13
-76.058899628675761
 23
150.87744729863081
 33
0.0
210
0.0
220
0.0
230
-1.0
  0
SOLID
  5
2DE4
  8
1
  6
CONTINUOUS
 62
     2
 10
-74.527486262730903
 20
150.87744729863081
 30
0.0
 11
-76.030097628224297
 21
150.8055033795757
 31
0.0
 12
-74.548610903371284
 22
150.8055033795757
 32
0.0
 13
-74.548610903371284
 23
150.8055033795757
 33
0.0
210
0.0
220
0.0
230
-1.0
  0
SOLID
  5
2DE5
  8
1
  6
CONTINUOUS
 62
     2
 10
-74.527486262730903
 20
150.87744729863081
 30
0.0
 11
-76.058899628675761
 21
150.87744729863081
 31
0.0
 12
-76.030097628224297
 22
150.8055033795757
 32
0.0
 13
-76.030097628224297
 23
150.8055033795757
 33
0.0
210
0.0
220
0.0
230
-1.0
  0
SOLID
  5
2DE6
  8
1
  6
CONTINUOUS
 62
     2
 10
-74.548610903371284
 20
150.8055033795757
 30
0.0
 11
-76.002373608708098
 21
150.73625212672201
 31
0.0
 12
-74.584312405565456
 22
150.73625212672201
 32
0.0
 13
-74.584312405565456
 23
150.73625212672201
 33
0.0
210
0.0
220
0.0
230
-1.0
  0
SOLID
  5
2DE7
  8
1
  6
CONTINUOUS
 62
     2
 10
-74.548610903371284
 20
150.8055033795757
 30
0.0
 11
-76.030097628224297
 21
150.8055033795757
 31
0.0
 12
-76.002373608708098
 22
150.73625212672201
 32
0.0
 13
-76.002373608708098
 23
150.73625212672201
 33
0.0
210
0.0
220
0.0
230
-1.0
  0
SOLID
  5
2DE8
  8
1
  6
CONTINUOUS
 62
     2
 10
-74.584312405565456
 20
150.73625212672201
 30
0.0
 11
-75.960002047247855
 21
150.6703206901395
 31
0.0
 12
-74.618302423519211
 22
150.6703206901395
 32
0.0
 13
-74.618302423519211
 23
150.6703206901395
 33
0.0
210
0.0
220
0.0
230
-1.0
  0
SOLID
  5
2DE9
  8
1
  6
CONTINUOUS
 62
     2
 10
-74.584312405565456
 20
150.73625212672201
 30
0.0
 11
-76.002373608708098
 21
150.73625212672201
 31
0.0
 12
-75.960002047247855
 22
150.6703206901395
 32
0.0
 13
-75.960002047247855
 23
150.6703206901395
 33
0.0
210
0.0
220
0.0
230
-1.0
  0
SOLID
  5
2DEA
  8
1
  6
CONTINUOUS
 62
     2
 10
-74.618302423519211
 20
150.6703206901395
 30
0.0
 11
-75.920147725578374
 21
150.60830615512751
 31
0.0
 12
-74.667071192894156
 22
150.60830615512751
 32
0.0
 13
-74.667071192894156
 23
150.60830615512751
 33
0.0
210
0.0
220
0.0
230
-1.0
  0
SOLID
  5
2DEB
  8
1
  6
CONTINUOUS
 62
     2
 10
-74.618302423519211
 20
150.6703206901395
 30
0.0
 11
-75.960002047247855
 21
150.6703206901395
 31
0.0
 12
-75.920147725578374
 22
150.60830615512751
 32
0.0
 13
-75.920147725578374
 23
150.60830615512751
 33
0.0
210
0.0
220
0.0
230
-1.0
  0
SOLID
  5
2DEC
  8
1
  6
CONTINUOUS
 62
     2
 10
-74.667071192894156
 20
150.60830615512751
 30
0.0
 11
-75.865287241118452
 21
150.55077013491831
 31
0.0
 12
-74.712318019300085
 22
150.55077013491831
 32
0.0
 13
-74.712318019300085
 23
150.55077013491831
 33
0.0
210
0.0
220
0.0
230
-1.0
  0
SOLID
  5
2DED
  8
1
  6
CONTINUOUS
 62
     2
 10
-74.667071192894156
 20
150.60830615512751
 30
0.0
 11
-75.920147725578374
 21
150.60830615512751
 31
0.0
 12
-75.865287241118452
 22
150.55077013491831
 32
0.0
 13
-75.865287241118452
 23
150.55077013491831
 33
0.0
210
0.0
220
0.0
230
-1.0
  0
SOLID
  5
2DEE
  8
1
  6
CONTINUOUS
 62
     2
 10
-74.712318019300085
 20
150.55077013491831
 30
0.0
 11
-75.815193836940381
 21
150.4982336846206
 31
0.0
 12
-74.772948315014077
 22
150.4982336846206
 32
0.0
 13
-74.772948315014077
 23
150.4982336846206
 33
0.0
210
0.0
220
0.0
230
-1.0
  0
SOLID
  5
2DEF
  8
1
  6
CONTINUOUS
 62
     2
 10
-74.712318019300085
 20
150.55077013491831
 30
0.0
 11
-75.865287241118452
 21
150.55077013491831
 31
0.0
 12
-75.815193836940381
 22
150.4982336846206
 32
0.0
 13
-75.815193836940381
 23
150.4982336846206
 33
0.0
210
0.0
220
0.0
230
-1.0
  0
SOLID
  5
2DF0
  8
1
  6
CONTINUOUS
 62
     2
 10
-74.772948315014077
 20
150.4982336846206
 30
0.0
 11
-75.749105766164163
 21
150.4511725824637
 31
0.0
 12
-74.827259722127195
 22
150.4511725824637
 32
0.0
 13
-74.827259722127195
 23
150.4511725824637
 33
0.0
210
0.0
220
0.0
230
-1.0
  0
SOLID
  5
2DF1
  8
1
  6
CONTINUOUS
 62
     2
 10
-74.772948315014077
 20
150.4982336846206
 30
0.0
 11
-75.815193836940381
 21
150.4982336846206
 31
0.0
 12
-75.749105766164163
 22
150.4511725824637
 32
0.0
 13
-75.749105766164163
 23
150.4511725824637
 33
0.0
210
0.0
220
0.0
230
-1.0
  0
SOLID
  5
2DF2
  8
1
  6
CONTINUOUS
 62
     2
 10
-74.827259722127195
 20
150.4511725824637
 30
0.0
 11
-75.691305249784165
 21
150.4100130210764
 31
0.0
 12
-74.898550173667203
 22
150.4100130210764
 32
0.0
 13
-74.898550173667203
 23
150.4100130210764
 33
0.0
210
0.0
220
0.0
230
-1.0
  0
SOLID
  5
2DF3
  8
1
  6
CONTINUOUS
 62
     2
 10
-74.827259722127195
 20
150.4511725824637
 30
0.0
 11
-75.749105766164163
 21
150.4511725824637
 31
0.0
 12
-75.691305249784165
 22
150.4100130210764
 32
0.0
 13
-75.691305249784165
 23
150.4100130210764
 33
0.0
210
0.0
220
0.0
230
-1.0
  0
SOLID
  5
2DF4
  8
1
  6
CONTINUOUS
 62
     2
 10
-74.898550173667203
 20
150.4100130210764
 30
0.0
 11
-75.61491715660695
 21
150.3751277478203
 31
0.0
 12
-74.958973239382644
 22
150.3751277478203
 32
0.0
 13
-74.958973239382644
 23
150.3751277478203
 33
0.0
210
0.0
220
0.0
230
-1.0
  0
SOLID
  5
2DF5
  8
1
  6
CONTINUOUS
 62
     2
 10
-74.898550173667203
 20
150.4100130210764
 30
0.0
 11
-75.691305249784165
 21
150.4100130210764
 31
0.0
 12
-75.61491715660695
 22
150.3751277478203
 32
0.0
 13
-75.61491715660695
 23
150.3751277478203
 33
0.0
210
0.0
220
0.0
230
-1.0
  0
SOLID
  5
2DF6
  8
1
  6
CONTINUOUS
 62
     2
 10
-74.958973239382644
 20
150.3751277478203
 30
0.0
 11
-75.552959620438102
 21
150.34683268913221
 31
0.0
 12
-75.040726442462045
 22
150.34683268913221
 32
0.0
 13
-75.040726442462045
 23
150.34683268913221
 33
0.0
210
0.0
220
0.0
230
-1.0
  0
SOLID
  5
2DF7
  8
1
  6
CONTINUOUS
 62
     2
 10
-74.958973239382644
 20
150.3751277478203
 30
0.0
 11
-75.61491715660695
 21
150.3751277478203
 31
0.0
 12
-75.552959620438102
 22
150.34683268913221
 32
0.0
 13
-75.552959620438102
 23
150.34683268913221
 33
0.0
210
0.0
220
0.0
230
-1.0
  0
SOLID
  5
2DF8
  8
1
  6
CONTINUOUS
 62
     2
 10
-75.040726442462045
 20
150.34683268913221
 30
0.0
 11
-75.464547288344647
 21
150.32538408944509
 31
0.0
 12
-75.102698101376603
 22
150.32538408944509
 32
0.0
 13
-75.102698101376603
 23
150.32538408944509
 33
0.0
210
0.0
220
0.0
230
-1.0
  0
SOLID
  5
2DF9
  8
1
  6
CONTINUOUS
 62
     2
 10
-75.040726442462045
 20
150.34683268913221
 30
0.0
 11
-75.552959620438102
 21
150.34683268913221
 31
0.0
 12
-75.464547288344647
 22
150.32538408944509
 32
0.0
 13
-75.464547288344647
 23
150.32538408944509
 33
0.0
210
0.0
220
0.0
230
-1.0
  0
SOLID
  5
2DFA
  8
1
  6
CONTINUOUS
 62
     2
 10
-75.202907238970184
 20
150.31097619059921
 30
0.0
 11
-75.405157120402791
 21
150.31097619059921
 31
0.0
 12
-75.253239717125155
 22
150.30373947275751
 32
0.0
 13
-75.253239717125155
 23
150.30373947275751
 33
0.0
210
0.0
220
0.0
230
-1.0
  0
SOLID
  5
2DFB
  8
1
  6
CONTINUOUS
 62
     2
 10
-75.102698101376603
 20
150.32538408944509
 30
0.0
 11
-75.405157120402791
 21
150.31097619059921
 31
0.0
 12
-75.202907238970184
 22
150.31097619059921
 32
0.0
 13
-75.202907238970184
 23
150.31097619059921
 33
0.0
210
0.0
220
0.0
230
-1.0
  0
SOLID
  5
2DFC
  8
1
  6
CONTINUOUS
 62
     2
 10
-75.102698101376603
 20
150.32538408944509
 30
0.0
 11
-75.464547288344647
 21
150.32538408944509
 31
0.0
 12
-75.405157120402791
 22
150.31097619059921
 32
0.0
 13
-75.405157120402791
 23
150.31097619059921
 33
0.0
210
0.0
220
0.0
230
-1.0
  0
LINE
  5
2DFD
  8
1
  6
CONTINUOUS
 62
     2
 10
75.253239717125155
 20
151.90192721545031
 30
0.0
 11
75.405157120402791
 21
151.89469049760871
 31
0.0
  0
LINE
  5
2DFE
  8
1
  6
CONTINUOUS
 62
     2
 10
75.202907238970127
 20
151.89469049760871
 30
0.0
 11
75.253239717125155
 21
151.90192721545031
 31
0.0
  0
LINE
  5
2DFF
  8
1
  6
CONTINUOUS
 62
     2
 10
75.102698101376603
 20
151.88028259876279
 30
0.0
 11
75.202907238970127
 21
151.89469049760871
 31
0.0
  0
LINE
  5
2E00
  8
1
  6
CONTINUOUS
 62
     2
 10
75.405157120402791
 20
151.89469049760871
 30
0.0
 11
75.464547288344534
 21
151.88028259876279
 31
0.0
  0
LINE
  5
2E01
  8
1
  6
CONTINUOUS
 62
     2
 10
75.040726442462002
 20
151.8588339990757
 30
0.0
 11
75.102698101376603
 21
151.88028259876279
 31
0.0
  0
LINE
  5
2E02
  8
1
  6
CONTINUOUS
 62
     2
 10
75.464547288344534
 20
151.88028259876279
 30
0.0
 11
75.552959620438102
 21
151.8588339990757
 31
0.0
  0
LINE
  5
2E03
  8
1
  6
CONTINUOUS
 62
     2
 10
74.958973239382644
 20
151.83053894038761
 30
0.0
 11
75.040726442462002
 21
151.8588339990757
 31
0.0
  0
LINE
  5
2E04
  8
1
  6
CONTINUOUS
 62
     2
 10
75.552959620438102
 20
151.8588339990757
 30
0.0
 11
75.61491715660695
 21
151.83053894038761
 31
0.0
  0
LINE
  5
2E05
  8
1
  6
CONTINUOUS
 62
     2
 10
74.898550173667203
 20
151.79565366713149
 30
0.0
 11
74.958973239382644
 21
151.83053894038761
 31
0.0
  0
LINE
  5
2E06
  8
1
  6
CONTINUOUS
 62
     2
 10
75.61491715660695
 20
151.83053894038761
 30
0.0
 11
75.691305249784165
 21
151.79565366713149
 31
0.0
  0
LINE
  5
2E07
  8
1
  6
CONTINUOUS
 62
     2
 10
74.827259722127195
 20
151.75449410574419
 30
0.0
 11
74.898550173667203
 21
151.79565366713149
 31
0.0
  0
LINE
  5
2E08
  8
1
  6
CONTINUOUS
 62
     2
 10
75.691305249784165
 20
151.79565366713149
 30
0.0
 11
75.749105766164163
 21
151.75449410574419
 31
0.0
  0
LINE
  5
2E09
  8
1
  6
CONTINUOUS
 62
     2
 10
74.772948315014077
 20
151.7074330035874
 30
0.0
 11
74.827259722127195
 21
151.75449410574419
 31
0.0
  0
LINE
  5
2E0A
  8
1
  6
CONTINUOUS
 62
     2
 10
75.749105766164163
 20
151.75449410574419
 30
0.0
 11
75.815193836940381
 21
151.7074330035874
 31
0.0
  0
LINE
  5
2E0B
  8
1
  6
CONTINUOUS
 62
     2
 10
74.712318019300085
 20
151.6548965532896
 30
0.0
 11
74.772948315014077
 21
151.7074330035874
 31
0.0
  0
LINE
  5
2E0C
  8
1
  6
CONTINUOUS
 62
     2
 10
75.815193836940381
 20
151.7074330035874
 30
0.0
 11
75.865287241118452
 21
151.6548965532896
 31
0.0
  0
LINE
  5
2E0D
  8
1
  6
CONTINUOUS
 62
     2
 10
74.667071192894156
 20
151.5973605330804
 30
0.0
 11
74.712318019300085
 21
151.6548965532896
 31
0.0
  0
LINE
  5
2E0E
  8
1
  6
CONTINUOUS
 62
     2
 10
75.865287241118452
 20
151.6548965532896
 30
0.0
 11
75.920147725578374
 21
151.5973605330804
 31
0.0
  0
LINE
  5
2E0F
  8
1
  6
CONTINUOUS
 62
     2
 10
74.618302423519211
 20
151.53534599806841
 30
0.0
 11
74.667071192894156
 21
151.5973605330804
 31
0.0
  0
LINE
  5
2E10
  8
1
  6
CONTINUOUS
 62
     2
 10
75.920147725578374
 20
151.5973605330804
 30
0.0
 11
75.960002047247855
 21
151.53534599806841
 31
0.0
  0
LINE
  5
2E11
  8
1
  6
CONTINUOUS
 62
     2
 10
74.584312405565456
 20
151.46941456148591
 30
0.0
 11
74.618302423519211
 21
151.53534599806841
 31
0.0
  0
LINE
  5
2E12
  8
1
  6
CONTINUOUS
 62
     2
 10
75.960002047247855
 20
151.53534599806841
 30
0.0
 11
76.002373608708098
 21
151.46941456148591
 31
0.0
  0
LINE
  5
2E13
  8
1
  6
CONTINUOUS
 62
     2
 10
74.548610903371284
 20
151.40016330863219
 30
0.0
 11
74.584312405565456
 21
151.46941456148591
 31
0.0
  0
LINE
  5
2E14
  8
1
  6
CONTINUOUS
 62
     2
 10
76.002373608708098
 20
151.46941456148591
 30
0.0
 11
76.030097628224283
 21
151.40016330863219
 31
0.0
  0
LINE
  5
2E15
  8
1
  6
CONTINUOUS
 62
     2
 10
74.527486262730903
 20
151.3282193895771
 30
0.0
 11
74.548610903371284
 21
151.40016330863219
 31
0.0
  0
LINE
  5
2E16
  8
1
  6
CONTINUOUS
 62
     2
 10
76.030097628224283
 20
151.40016330863219
 30
0.0
 11
76.058899628675761
 21
151.3282193895771
 31
0.0
  0
LINE
  5
2E17
  8
1
  6
CONTINUOUS
 62
     2
 10
74.505762291973994
 20
151.2542343395923
 30
0.0
 11
74.527486262730903
 21
151.3282193895771
 31
0.0
  0
LINE
  5
2E18
  8
1
  6
CONTINUOUS
 62
     2
 10
76.058899628675761
 20
151.3282193895771
 30
0.0
 11
76.073159078280113
 21
151.2542343395923
 31
0.0
  0
LINE
  5
2E19
  8
1
  6
CONTINUOUS
 62
     2
 10
74.498566651066312
 20
151.17887817874731
 30
0.0
 11
74.505762291973994
 21
151.2542343395923
 31
0.0
  0
LINE
  5
2E1A
  8
1
  6
CONTINUOUS
 62
     2
 10
76.073159078280113
 20
151.2542343395923
 30
0.0
 11
76.087682787842624
 21
151.17887817874731
 31
0.0
  0
LINE
  5
2E1B
  8
1
  6
CONTINUOUS
 62
     2
 10
74.491305249784162
 20
151.10283334410391
 30
0.0
 11
74.498566651066312
 21
151.17887817874731
 31
0.0
  0
LINE
  5
2E1C
  8
1
  6
CONTINUOUS
 62
     2
 10
76.087682787842624
 20
151.17887817874731
 30
0.0
 11
76.087682787842624
 21
151.10283334410391
 31
0.0
  0
LINE
  5
2E1D
  8
1
  6
CONTINUOUS
 62
     2
 10
74.498566651066312
 20
151.0267885094606
 30
0.0
 11
74.491305249784162
 21
151.10283334410391
 31
0.0
  0
LINE
  5
2E1E
  8
1
  6
CONTINUOUS
 62
     2
 10
76.087682787842624
 20
151.10283334410391
 30
0.0
 11
76.087682787842624
 21
151.0267885094606
 31
0.0
  0
LINE
  5
2E1F
  8
1
  6
CONTINUOUS
 62
     2
 10
74.505762291973994
 20
150.95143234861561
 30
0.0
 11
74.498566651066312
 21
151.0267885094606
 31
0.0
  0
LINE
  5
2E20
  8
1
  6
CONTINUOUS
 62
     2
 10
76.087682787842624
 20
151.0267885094606
 30
0.0
 11
76.073159078280113
 21
150.95143234861561
 31
0.0
  0
LINE
  5
2E21
  8
1
  6
CONTINUOUS
 62
     2
 10
74.527486262730903
 20
150.87744729863081
 30
0.0
 11
74.505762291973994
 21
150.95143234861561
 31
0.0
  0
LINE
  5
2E22
  8
1
  6
CONTINUOUS
 62
     2
 10
76.073159078280113
 20
150.95143234861561
 30
0.0
 11
76.058899628675761
 21
150.87744729863081
 31
0.0
  0
LINE
  5
2E23
  8
1
  6
CONTINUOUS
 62
     2
 10
74.548610903371284
 20
150.8055033795757
 30
0.0
 11
74.527486262730903
 21
150.87744729863081
 31
0.0
  0
LINE
  5
2E24
  8
1
  6
CONTINUOUS
 62
     2
 10
76.058899628675761
 20
150.87744729863081
 30
0.0
 11
76.030097628224297
 21
150.8055033795757
 31
0.0
  0
LINE
  5
2E25
  8
1
  6
CONTINUOUS
 62
     2
 10
74.584312405565456
 20
150.73625212672201
 30
0.0
 11
74.548610903371284
 21
150.8055033795757
 31
0.0
  0
LINE
  5
2E26
  8
1
  6
CONTINUOUS
 62
     2
 10
76.030097628224297
 20
150.8055033795757
 30
0.0
 11
76.002373608708098
 21
150.73625212672201
 31
0.0
  0
LINE
  5
2E27
  8
1
  6
CONTINUOUS
 62
     2
 10
74.618302423519211
 20
150.6703206901395
 30
0.0
 11
74.584312405565456
 21
150.73625212672201
 31
0.0
  0
LINE
  5
2E28
  8
1
  6
CONTINUOUS
 62
     2
 10
76.002373608708098
 20
150.73625212672201
 30
0.0
 11
75.960002047247855
 21
150.6703206901395
 31
0.0
  0
LINE
  5
2E29
  8
1
  6
CONTINUOUS
 62
     2
 10
74.667071192894156
 20
150.60830615512751
 30
0.0
 11
74.618302423519211
 21
150.6703206901395
 31
0.0
  0
LINE
  5
2E2A
  8
1
  6
CONTINUOUS
 62
     2
 10
75.960002047247855
 20
150.6703206901395
 30
0.0
 11
75.920147725578374
 21
150.60830615512751
 31
0.0
  0
LINE
  5
2E2B
  8
1
  6
CONTINUOUS
 62
     2
 10
74.712318019300085
 20
150.55077013491831
 30
0.0
 11
74.667071192894156
 21
150.60830615512751
 31
0.0
  0
LINE
  5
2E2C
  8
1
  6
CONTINUOUS
 62
     2
 10
75.920147725578374
 20
150.60830615512751
 30
0.0
 11
75.865287241118452
 21
150.55077013491831
 31
0.0
  0
LINE
  5
2E2D
  8
1
  6
CONTINUOUS
 62
     2
 10
74.772948315014077
 20
150.4982336846206
 30
0.0
 11
74.712318019300085
 21
150.55077013491831
 31
0.0
  0
LINE
  5
2E2E
  8
1
  6
CONTINUOUS
 62
     2
 10
75.865287241118452
 20
150.55077013491831
 30
0.0
 11
75.815193836940381
 21
150.4982336846206
 31
0.0
  0
LINE
  5
2E2F
  8
1
  6
CONTINUOUS
 62
     2
 10
74.827259722127195
 20
150.4511725824637
 30
0.0
 11
74.772948315014077
 21
150.4982336846206
 31
0.0
  0
LINE
  5
2E30
  8
1
  6
CONTINUOUS
 62
     2
 10
75.815193836940381
 20
150.4982336846206
 30
0.0
 11
75.749105766164163
 21
150.4511725824637
 31
0.0
  0
LINE
  5
2E31
  8
1
  6
CONTINUOUS
 62
     2
 10
74.898550173667203
 20
150.4100130210764
 30
0.0
 11
74.827259722127195
 21
150.4511725824637
 31
0.0
  0
LINE
  5
2E32
  8
1
  6
CONTINUOUS
 62
     2
 10
75.749105766164163
 20
150.4511725824637
 30
0.0
 11
75.691305249784165
 21
150.4100130210764
 31
0.0
  0
LINE
  5
2E33
  8
1
  6
CONTINUOUS
 62
     2
 10
74.958973239382644
 20
150.3751277478203
 30
0.0
 11
74.898550173667203
 21
150.4100130210764
 31
0.0
  0
LINE
  5
2E34
  8
1
  6
CONTINUOUS
 62
     2
 10
75.691305249784165
 20
150.4100130210764
 30
0.0
 11
75.61491715660695
 21
150.3751277478203
 31
0.0
  0
LINE
  5
2E35
  8
1
  6
CONTINUOUS
 62
     2
 10
75.040726442462045
 20
150.34683268913221
 30
0.0
 11
74.958973239382644
 21
150.3751277478203
 31
0.0
  0
LINE
  5
2E36
  8
1
  6
CONTINUOUS
 62
     2
 10
75.61491715660695
 20
150.3751277478203
 30
0.0
 11
75.552959620438102
 21
150.34683268913221
 31
0.0
  0
LINE
  5
2E37
  8
1
  6
CONTINUOUS
 62
     2
 10
75.102698101376603
 20
150.32538408944509
 30
0.0
 11
75.040726442462045
 21
150.34683268913221
 31
0.0
  0
LINE
  5
2E38
  8
1
  6
CONTINUOUS
 62
     2
 10
75.552959620438102
 20
150.34683268913221
 30
0.0
 11
75.464547288344647
 21
150.32538408944509
 31
0.0
  0
LINE
  5
2E39
  8
1
  6
CONTINUOUS
 62
     2
 10
75.405157120402791
 20
150.31097619059921
 30
0.0
 11
75.253239717125155
 21
150.30373947275751
 31
0.0
  0
LINE
  5
2E3A
  8
1
  6
CONTINUOUS
 62
     2
 10
75.253239717125155
 20
150.30373947275751
 30
0.0
 11
75.202907238970184
 21
150.31097619059921
 31
0.0
  0
LINE
  5
2E3B
  8
1
  6
CONTINUOUS
 62
     2
 10
75.202907238970184
 20
150.31097619059921
 30
0.0
 11
75.102698101376603
 21
150.32538408944509
 31
0.0
  0
LINE
  5
2E3C
  8
1
  6
CONTINUOUS
 62
     2
 10
75.464547288344647
 20
150.32538408944509
 30
0.0
 11
75.405157120402791
 21
150.31097619059921
 31
0.0
  0
ENDBLK
  5
2E3E
  8
0
  0
BLOCK
  8
0
  2
*U49
 70
     1
 10
0.0
 20
0.0
 30
0.0
  3
*U49
  1

  0
TEXT
  5
2E40
  8
1
 62
     3
 10
79.216913195345001
 20
152.10283334410391
 30
0.0
 40
3.2000000000000002
  1
1.5
 50
0.0001388888891441
 41
0.63
  7
CONVERTER_1
  0
ENDBLK
  5
2E42
  8
0
  0
BLOCK
  8
0
  2
*U50
 70
     1
 10
0.0
 20
0.0
 30
0.0
  3
*U50
  1

  0
TEXT
  5
2E44
  8
1
 62
     3
 10
107.4313873666533
 20
145.7029397525429
 30
0.0
 40
3.2000000000000002
  1
\U+03C667.6
 50
45.000000000000803
 41
0.6230000000000001
  7
CONVERTER_3
  0
ENDBLK
  5
2E46
  8
0
  0
BLOCK
  8
0
  2
*U51
 70
     1
 10
0.0
 20
0.0
 30
0.0
  3
*U51
  1

  0
TEXT
  5
2E48
  8
1
 62
     3
 10
107.79797275624389
 20
112.67095696205141
 30
0.0
 40
3.2000000000000002
  1
52
 50
90.0
 41
0.63
  7
CONVERTER_1
  0
ENDBLK
  5
2E4A
  8
0
  0
BLOCK
  8
0
  2
*U52
 70
     1
 10
0.0
 20
0.0
 30
0.0
  3
*U52
  1

  0
TEXT
  5
2E4C
  8
1
 62
     3
 10
98.959877518148659
 20
101.1751043164094
 30
0.0
 40
3.2000000000000002
  1
n
 50
90.0
 41
0.63
  7
CONVERTER_1
  0
TEXT
  5
2E4D
  8
1
 62
     3
 10
98.959877518148659
 20
103.4791043164094
 30
0.0
 40
3.2000000000000002
  1
72
 50
90.0
 41
0.63
  7
CONVERTER_1
  0
ENDBLK
  5
2E4F
  8
0
  0
BLOCK
  8
0
  2
*U53
 70
     1
 10
0.0
 20
0.0
 30
0.0
  3
*U53
  1

  0
SOLID
  5
2E51
  8
1
  6
CONTINUOUS
 62
     2
 10
-75.253239717125155
 20
151.90192721545031
 30
0.0
 11
-75.405157120402791
 21
151.89469049760871
 31
0.0
 12
-75.202907238970127
 22
151.89469049760871
 32
0.0
 13
-75.202907238970127
 23
151.89469049760871
 33
0.0
210
0.0
220
0.0
230
-1.0
  0
SOLID
  5
2E52
  8
1
  6
CONTINUOUS
 62
     2
 10
-75.202907238970127
 20
151.89469049760871
 30
0.0
 11
-75.464547288344534
 21
151.88028259876279
 31
0.0
 12
-75.102698101376603
 22
151.88028259876279
 32
0.0
 13
-75.102698101376603
 23
151.88028259876279
 33
0.0
210
0.0
220
0.0
230
-1.0
  0
SOLID
  5
2E53
  8
1
  6
CONTINUOUS
 62
     2
 10
-75.202907238970127
 20
151.89469049760871
 30
0.0
 11
-75.405157120402791
 21
151.89469049760871
 31
0.0
 12
-75.464547288344534
 22
151.88028259876279
 32
0.0
 13
-75.464547288344534
 23
151.88028259876279
 33
0.0
210
0.0
220
0.0
230
-1.0
  0
SOLID
  5
2E54
  8
1
  6
CONTINUOUS
 62
     2
 10
-75.102698101376603
 20
151.88028259876279
 30
0.0
 11
-75.552959620438102
 21
151.8588339990757
 31
0.0
 12
-75.040726442462002
 22
151.8588339990757
 32
0.0
 13
-75.040726442462002
 23
151.8588339990757
 33
0.0
210
0.0
220
0.0
230
-1.0
  0
SOLID
  5
2E55
  8
1
  6
CONTINUOUS
 62
     2
 10
-75.102698101376603
 20
151.88028259876279
 30
0.0
 11
-75.464547288344534
 21
151.88028259876279
 31
0.0
 12
-75.552959620438102
 22
151.8588339990757
 32
0.0
 13
-75.552959620438102
 23
151.8588339990757
 33
0.0
210
0.0
220
0.0
230
-1.0
  0
SOLID
  5
2E56
  8
1
  6
CONTINUOUS
 62
     2
 10
-75.040726442462002
 20
151.8588339990757
 30
0.0
 11
-75.61491715660695
 21
151.83053894038761
 31
0.0
 12
-74.958973239382644
 22
151.83053894038761
 32
0.0
 13
-74.958973239382644
 23
151.83053894038761
 33
0.0
210
0.0
220
0.0
230
-1.0
  0
SOLID
  5
2E57
  8
1
  6
CONTINUOUS
 62
     2
 10
-75.040726442462002
 20
151.8588339990757
 30
0.0
 11
-75.552959620438102
 21
151.8588339990757
 31
0.0
 12
-75.61491715660695
 22
151.83053894038761
 32
0.0
 13
-75.61491715660695
 23
151.83053894038761
 33
0.0
210
0.0
220
0.0
230
-1.0
  0
SOLID
  5
2E58
  8
1
  6
CONTINUOUS
 62
     2
 10
-74.958973239382644
 20
151.83053894038761
 30
0.0
 11
-75.691305249784165
 21
151.79565366713149
 31
0.0
 12
-74.898550173667203
 22
151.79565366713149
 32
0.0
 13
-74.898550173667203
 23
151.79565366713149
 33
0.0
210
0.0
220
0.0
230
-1.0
  0
SOLID
  5
2E59
  8
1
  6
CONTINUOUS
 62
     2
 10
-74.958973239382644
 20
151.83053894038761
 30
0.0
 11
-75.61491715660695
 21
151.83053894038761
 31
0.0
 12
-75.691305249784165
 22
151.79565366713149
 32
0.0
 13
-75.691305249784165
 23
151.79565366713149
 33
0.0
210
0.0
220
0.0
230
-1.0
  0
SOLID
  5
2E5A
  8
1
  6
CONTINUOUS
 62
     2
 10
-74.898550173667203
 20
151.79565366713149
 30
0.0
 11
-75.749105766164163
 21
151.75449410574419
 31
0.0
 12
-74.827259722127195
 22
151.75449410574419
 32
0.0
 13
-74.827259722127195
 23
151.75449410574419
 33
0.0
210
0.0
220
0.0
230
-1.0
  0
SOLID
  5
2E5B
  8
1
  6
CONTINUOUS
 62
     2
 10
-74.898550173667203
 20
151.79565366713149
 30
0.0
 11
-75.691305249784165
 21
151.79565366713149
 31
0.0
 12
-75.749105766164163
 22
151.75449410574419
 32
0.0
 13
-75.749105766164163
 23
151.75449410574419
 33
0.0
210
0.0
220
0.0
230
-1.0
  0
SOLID
  5
2E5C
  8
1
  6
CONTINUOUS
 62
     2
 10
-74.827259722127195
 20
151.75449410574419
 30
0.0
 11
-75.815193836940381
 21
151.7074330035874
 31
0.0
 12
-74.772948315014077
 22
151.7074330035874
 32
0.0
 13
-74.772948315014077
 23
151.7074330035874
 33
0.0
210
0.0
220
0.0
230
-1.0
  0
SOLID
  5
2E5D
  8
1
  6
CONTINUOUS
 62
     2
 10
-74.827259722127195
 20
151.75449410574419
 30
0.0
 11
-75.749105766164163
 21
151.75449410574419
 31
0.0
 12
-75.815193836940381
 22
151.7074330035874
 32
0.0
 13
-75.815193836940381
 23
151.7074330035874
 33
0.0
210
0.0
220
0.0
230
-1.0
  0
SOLID
  5
2E5E
  8
1
  6
CONTINUOUS
 62
     2
 10
-74.772948315014077
 20
151.7074330035874
 30
0.0
 11
-75.865287241118452
 21
151.6548965532896
 31
0.0
 12
-74.712318019300085
 22
151.6548965532896
 32
0.0
 13
-74.712318019300085
 23
151.6548965532896
 33
0.0
210
0.0
220
0.0
230
-1.0
  0
SOLID
  5
2E5F
  8
1
  6
CONTINUOUS
 62
     2
 10
-74.772948315014077
 20
151.7074330035874
 30
0.0
 11
-75.815193836940381
 21
151.7074330035874
 31
0.0
 12
-75.865287241118452
 22
151.6548965532896
 32
0.0
 13
-75.865287241118452
 23
151.6548965532896
 33
0.0
210
0.0
220
0.0
230
-1.0
  0
SOLID
  5
2E60
  8
1
  6
CONTINUOUS
 62
     2
 10
-74.712318019300085
 20
151.6548965532896
 30
0.0
 11
-75.920147725578374
 21
151.5973605330804
 31
0.0
 12
-74.667071192894156
 22
151.5973605330804
 32
0.0
 13
-74.667071192894156
 23
151.5973605330804
 33
0.0
210
0.0
220
0.0
230
-1.0
  0
SOLID
  5
2E61
  8
1
  6
CONTINUOUS
 62
     2
 10
-74.712318019300085
 20
151.6548965532896
 30
0.0
 11
-75.865287241118452
 21
151.6548965532896
 31
0.0
 12
-75.920147725578374
 22
151.5973605330804
 32
0.0
 13
-75.920147725578374
 23
151.5973605330804
 33
0.0
210
0.0
220
0.0
230
-1.0
  0
SOLID
  5
2E62
  8
1
  6
CONTINUOUS
 62
     2
 10
-74.667071192894156
 20
151.5973605330804
 30
0.0
 11
-75.960002047247855
 21
151.53534599806841
 31
0.0
 12
-74.618302423519211
 22
151.53534599806841
 32
0.0
 13
-74.618302423519211
 23
151.53534599806841
 33
0.0
210
0.0
220
0.0
230
-1.0
  0
SOLID
  5
2E63
  8
1
  6
CONTINUOUS
 62
     2
 10
-74.667071192894156
 20
151.5973605330804
 30
0.0
 11
-75.920147725578374
 21
151.5973605330804
 31
0.0
 12
-75.960002047247855
 22
151.53534599806841
 32
0.0
 13
-75.960002047247855
 23
151.53534599806841
 33
0.0
210
0.0
220
0.0
230
-1.0
  0
SOLID
  5
2E64
  8
1
  6
CONTINUOUS
 62
     2
 10
-74.618302423519211
 20
151.53534599806841
 30
0.0
 11
-76.002373608708098
 21
151.46941456148591
 31
0.0
 12
-74.584312405565456
 22
151.46941456148591
 32
0.0
 13
-74.584312405565456
 23
151.46941456148591
 33
0.0
210
0.0
220
0.0
230
-1.0
  0
SOLID
  5
2E65
  8
1
  6
CONTINUOUS
 62
     2
 10
-74.618302423519211
 20
151.53534599806841
 30
0.0
 11
-75.960002047247855
 21
151.53534599806841
 31
0.0
 12
-76.002373608708098
 22
151.46941456148591
 32
0.0
 13
-76.002373608708098
 23
151.46941456148591
 33
0.0
210
0.0
220
0.0
230
-1.0
  0
SOLID
  5
2E66
  8
1
  6
CONTINUOUS
 62
     2
 10
-74.584312405565456
 20
151.46941456148591
 30
0.0
 11
-76.030097628224283
 21
151.40016330863219
 31
0.0
 12
-74.548610903371284
 22
151.40016330863219
 32
0.0
 13
-74.548610903371284
 23
151.40016330863219
 33
0.0
210
0.0
220
0.0
230
-1.0
  0
SOLID
  5
2E67
  8
1
  6
CONTINUOUS
 62
     2
 10
-74.584312405565456
 20
151.46941456148591
 30
0.0
 11
-76.002373608708098
 21
151.46941456148591
 31
0.0
 12
-76.030097628224283
 22
151.40016330863219
 32
0.0
 13
-76.030097628224283
 23
151.40016330863219
 33
0.0
210
0.0
220
0.0
230
-1.0
  0
SOLID
  5
2E68
  8
1
  6
CONTINUOUS
 62
     2
 10
-74.548610903371284
 20
151.40016330863219
 30
0.0
 11
-76.058899628675761
 21
151.3282193895771
 31
0.0
 12
-74.527486262730903
 22
151.3282193895771
 32
0.0
 13
-74.527486262730903
 23
151.3282193895771
 33
0.0
210
0.0
220
0.0
230
-1.0
  0
SOLID
  5
2E69
  8
1
  6
CONTINUOUS
 62
     2
 10
-74.548610903371284
 20
151.40016330863219
 30
0.0
 11
-76.030097628224283
 21
151.40016330863219
 31
0.0
 12
-76.058899628675761
 22
151.3282193895771
 32
0.0
 13
-76.058899628675761
 23
151.3282193895771
 33
0.0
210
0.0
220
0.0
230
-1.0
  0
SOLID
  5
2E6A
  8
1
  6
CONTINUOUS
 62
     2
 10
-74.527486262730903
 20
151.3282193895771
 30
0.0
 11
-76.073159078280113
 21
151.2542343395923
 31
0.0
 12
-74.505762291973994
 22
151.2542343395923
 32
0.0
 13
-74.505762291973994
 23
151.2542343395923
 33
0.0
210
0.0
220
0.0
230
-1.0
  0
SOLID
  5
2E6B
  8
1
  6
CONTINUOUS
 62
     2
 10
-74.527486262730903
 20
151.3282193895771
 30
0.0
 11
-76.058899628675761
 21
151.3282193895771
 31
0.0
 12
-76.073159078280113
 22
151.2542343395923
 32
0.0
 13
-76.073159078280113
 23
151.2542343395923
 33
0.0
210
0.0
220
0.0
230
-1.0
  0
SOLID
  5
2E6C
  8
1
  6
CONTINUOUS
 62
     2
 10
-74.505762291973994
 20
151.2542343395923
 30
0.0
 11
-76.087682787842624
 21
151.17887817874731
 31
0.0
 12
-74.498566651066312
 22
151.17887817874731
 32
0.0
 13
-74.498566651066312
 23
151.17887817874731
 33
0.0
210
0.0
220
0.0
230
-1.0
  0
SOLID
  5
2E6D
  8
1
  6
CONTINUOUS
 62
     2
 10
-74.505762291973994
 20
151.2542343395923
 30
0.0
 11
-76.073159078280113
 21
151.2542343395923
 31
0.0
 12
-76.087682787842624
 22
151.17887817874731
 32
0.0
 13
-76.087682787842624
 23
151.17887817874731
 33
0.0
210
0.0
220
0.0
230
-1.0
  0
SOLID
  5
2E6E
  8
1
  6
CONTINUOUS
 62
     2
 10
-74.498566651066312
 20
151.17887817874731
 30
0.0
 11
-76.087682787842624
 21
151.10283334410391
 31
0.0
 12
-74.491305249784162
 22
151.10283334410391
 32
0.0
 13
-74.491305249784162
 23
151.10283334410391
 33
0.0
210
0.0
220
0.0
230
-1.0
  0
SOLID
  5
2E6F
  8
1
  6
CONTINUOUS
 62
     2
 10
-74.498566651066312
 20
151.17887817874731
 30
0.0
 11
-76.087682787842624
 21
151.17887817874731
 31
0.0
 12
-76.087682787842624
 22
151.10283334410391
 32
0.0
 13
-76.087682787842624
 23
151.10283334410391
 33
0.0
210
0.0
220
0.0
230
-1.0
  0
SOLID
  5
2E70
  8
1
  6
CONTINUOUS
 62
     2
 10
-74.491305249784162
 20
151.10283334410391
 30
0.0
 11
-76.087682787842624
 21
151.0267885094606
 31
0.0
 12
-74.498566651066312
 22
151.0267885094606
 32
0.0
 13
-74.498566651066312
 23
151.0267885094606
 33
0.0
210
0.0
220
0.0
230
-1.0
  0
SOLID
  5
2E71
  8
1
  6
CONTINUOUS
 62
     2
 10
-74.491305249784162
 20
151.10283334410391
 30
0.0
 11
-76.087682787842624
 21
151.10283334410391
 31
0.0
 12
-76.087682787842624
 22
151.0267885094606
 32
0.0
 13
-76.087682787842624
 23
151.0267885094606
 33
0.0
210
0.0
220
0.0
230
-1.0
  0
SOLID
  5
2E72
  8
1
  6
CONTINUOUS
 62
     2
 10
-74.498566651066312
 20
151.0267885094606
 30
0.0
 11
-76.073159078280113
 21
150.95143234861561
 31
0.0
 12
-74.505762291973994
 22
150.95143234861561
 32
0.0
 13
-74.505762291973994
 23
150.95143234861561
 33
0.0
210
0.0
220
0.0
230
-1.0
  0
SOLID
  5
2E73
  8
1
  6
CONTINUOUS
 62
     2
 10
-74.498566651066312
 20
151.0267885094606
 30
0.0
 11
-76.087682787842624
 21
151.0267885094606
 31
0.0
 12
-76.073159078280113
 22
150.95143234861561
 32
0.0
 13
-76.073159078280113
 23
150.95143234861561
 33
0.0
210
0.0
220
0.0
230
-1.0
  0
SOLID
  5
2E74
  8
1
  6
CONTINUOUS
 62
     2
 10
-74.505762291973994
 20
150.95143234861561
 30
0.0
 11
-76.058899628675761
 21
150.87744729863081
 31
0.0
 12
-74.527486262730903
 22
150.87744729863081
 32
0.0
 13
-74.527486262730903
 23
150.87744729863081
 33
0.0
210
0.0
220
0.0
230
-1.0
  0
SOLID
  5
2E75
  8
1
  6
CONTINUOUS
 62
     2
 10
-74.505762291973994
 20
150.95143234861561
 30
0.0
 11
-76.073159078280113
 21
150.95143234861561
 31
0.0
 12
-76.058899628675761
 22
150.87744729863081
 32
0.0
 13
-76.058899628675761
 23
150.87744729863081
 33
0.0
210
0.0
220
0.0
230
-1.0
  0
SOLID
  5
2E76
  8
1
  6
CONTINUOUS
 62
     2
 10
-74.527486262730903
 20
150.87744729863081
 30
0.0
 11
-76.030097628224297
 21
150.8055033795757
 31
0.0
 12
-74.548610903371284
 22
150.8055033795757
 32
0.0
 13
-74.548610903371284
 23
150.8055033795757
 33
0.0
210
0.0
220
0.0
230
-1.0
  0
SOLID
  5
2E77
  8
1
  6
CONTINUOUS
 62
     2
 10
-74.527486262730903
 20
150.87744729863081
 30
0.0
 11
-76.058899628675761
 21
150.87744729863081
 31
0.0
 12
-76.030097628224297
 22
150.8055033795757
 32
0.0
 13
-76.030097628224297
 23
150.8055033795757
 33
0.0
210
0.0
220
0.0
230
-1.0
  0
SOLID
  5
2E78
  8
1
  6
CONTINUOUS
 62
     2
 10
-74.548610903371284
 20
150.8055033795757
 30
0.0
 11
-76.002373608708098
 21
150.73625212672201
 31
0.0
 12
-74.584312405565456
 22
150.73625212672201
 32
0.0
 13
-74.584312405565456
 23
150.73625212672201
 33
0.0
210
0.0
220
0.0
230
-1.0
  0
SOLID
  5
2E79
  8
1
  6
CONTINUOUS
 62
     2
 10
-74.548610903371284
 20
150.8055033795757
 30
0.0
 11
-76.030097628224297
 21
150.8055033795757
 31
0.0
 12
-76.002373608708098
 22
150.73625212672201
 32
0.0
 13
-76.002373608708098
 23
150.73625212672201
 33
0.0
210
0.0
220
0.0
230
-1.0
  0
SOLID
  5
2E7A
  8
1
  6
CONTINUOUS
 62
     2
 10
-74.584312405565456
 20
150.73625212672201
 30
0.0
 11
-75.960002047247855
 21
150.6703206901395
 31
0.0
 12
-74.618302423519211
 22
150.6703206901395
 32
0.0
 13
-74.618302423519211
 23
150.6703206901395
 33
0.0
210
0.0
220
0.0
230
-1.0
  0
SOLID
  5
2E7B
  8
1
  6
CONTINUOUS
 62
     2
 10
-74.584312405565456
 20
150.73625212672201
 30
0.0
 11
-76.002373608708098
 21
150.73625212672201
 31
0.0
 12
-75.960002047247855
 22
150.6703206901395
 32
0.0
 13
-75.960002047247855
 23
150.6703206901395
 33
0.0
210
0.0
220
0.0
230
-1.0
  0
SOLID
  5
2E7C
  8
1
  6
CONTINUOUS
 62
     2
 10
-74.618302423519211
 20
150.6703206901395
 30
0.0
 11
-75.920147725578374
 21
150.60830615512751
 31
0.0
 12
-74.667071192894156
 22
150.60830615512751
 32
0.0
 13
-74.667071192894156
 23
150.60830615512751
 33
0.0
210
0.0
220
0.0
230
-1.0
  0
SOLID
  5
2E7D
  8
1
  6
CONTINUOUS
 62
     2
 10
-74.618302423519211
 20
150.6703206901395
 30
0.0
 11
-75.960002047247855
 21
150.6703206901395
 31
0.0
 12
-75.920147725578374
 22
150.60830615512751
 32
0.0
 13
-75.920147725578374
 23
150.60830615512751
 33
0.0
210
0.0
220
0.0
230
-1.0
  0
SOLID
  5
2E7E
  8
1
  6
CONTINUOUS
 62
     2
 10
-74.667071192894156
 20
150.60830615512751
 30
0.0
 11
-75.865287241118452
 21
150.55077013491831
 31
0.0
 12
-74.712318019300085
 22
150.55077013491831
 32
0.0
 13
-74.712318019300085
 23
150.55077013491831
 33
0.0
210
0.0
220
0.0
230
-1.0
  0
SOLID
  5
2E7F
  8
1
  6
CONTINUOUS
 62
     2
 10
-74.667071192894156
 20
150.60830615512751
 30
0.0
 11
-75.920147725578374
 21
150.60830615512751
 31
0.0
 12
-75.865287241118452
 22
150.55077013491831
 32
0.0
 13
-75.865287241118452
 23
150.55077013491831
 33
0.0
210
0.0
220
0.0
230
-1.0
  0
SOLID
  5
2E80
  8
1
  6
CONTINUOUS
 62
     2
 10
-74.712318019300085
 20
150.55077013491831
 30
0.0
 11
-75.815193836940381
 21
150.4982336846206
 31
0.0
 12
-74.772948315014077
 22
150.4982336846206
 32
0.0
 13
-74.772948315014077
 23
150.4982336846206
 33
0.0
210
0.0
220
0.0
230
-1.0
  0
SOLID
  5
2E81
  8
1
  6
CONTINUOUS
 62
     2
 10
-74.712318019300085
 20
150.55077013491831
 30
0.0
 11
-75.865287241118452
 21
150.55077013491831
 31
0.0
 12
-75.815193836940381
 22
150.4982336846206
 32
0.0
 13
-75.815193836940381
 23
150.4982336846206
 33
0.0
210
0.0
220
0.0
230
-1.0
  0
SOLID
  5
2E82
  8
1
  6
CONTINUOUS
 62
     2
 10
-74.772948315014077
 20
150.4982336846206
 30
0.0
 11
-75.749105766164163
 21
150.4511725824637
 31
0.0
 12
-74.827259722127195
 22
150.4511725824637
 32
0.0
 13
-74.827259722127195
 23
150.4511725824637
 33
0.0
210
0.0
220
0.0
230
-1.0
  0
SOLID
  5
2E83
  8
1
  6
CONTINUOUS
 62
     2
 10
-74.772948315014077
 20
150.4982336846206
 30
0.0
 11
-75.815193836940381
 21
150.4982336846206
 31
0.0
 12
-75.749105766164163
 22
150.4511725824637
 32
0.0
 13
-75.749105766164163
 23
150.4511725824637
 33
0.0
210
0.0
220
0.0
230
-1.0
  0
SOLID
  5
2E84
  8
1
  6
CONTINUOUS
 62
     2
 10
-74.827259722127195
 20
150.4511725824637
 30
0.0
 11
-75.691305249784165
 21
150.4100130210764
 31
0.0
 12
-74.898550173667203
 22
150.4100130210764
 32
0.0
 13
-74.898550173667203
 23
150.4100130210764
 33
0.0
210
0.0
220
0.0
230
-1.0
  0
SOLID
  5
2E85
  8
1
  6
CONTINUOUS
 62
     2
 10
-74.827259722127195
 20
150.4511725824637
 30
0.0
 11
-75.749105766164163
 21
150.4511725824637
 31
0.0
 12
-75.691305249784165
 22
150.4100130210764
 32
0.0
 13
-75.691305249784165
 23
150.4100130210764
 33
0.0
210
0.0
220
0.0
230
-1.0
  0
SOLID
  5
2E86
  8
1
  6
CONTINUOUS
 62
     2
 10
-74.898550173667203
 20
150.4100130210764
 30
0.0
 11
-75.61491715660695
 21
150.3751277478203
 31
0.0
 12
-74.958973239382644
 22
150.3751277478203
 32
0.0
 13
-74.958973239382644
 23
150.3751277478203
 33
0.0
210
0.0
220
0.0
230
-1.0
  0
SOLID
  5
2E87
  8
1
  6
CONTINUOUS
 62
     2
 10
-74.898550173667203
 20
150.4100130210764
 30
0.0
 11
-75.691305249784165
 21
150.4100130210764
 31
0.0
 12
-75.61491715660695
 22
150.3751277478203
 32
0.0
 13
-75.61491715660695
 23
150.3751277478203
 33
0.0
210
0.0
220
0.0
230
-1.0
  0
SOLID
  5
2E88
  8
1
  6
CONTINUOUS
 62
     2
 10
-74.958973239382644
 20
150.3751277478203
 30
0.0
 11
-75.552959620438102
 21
150.34683268913221
 31
0.0
 12
-75.040726442462002
 22
150.34683268913221
 32
0.0
 13
-75.040726442462002
 23
150.34683268913221
 33
0.0
210
0.0
220
0.0
230
-1.0
  0
SOLID
  5
2E89
  8
1
  6
CONTINUOUS
 62
     2
 10
-74.958973239382644
 20
150.3751277478203
 30
0.0
 11
-75.61491715660695
 21
150.3751277478203
 31
0.0
 12
-75.552959620438102
 22
150.34683268913221
 32
0.0
 13
-75.552959620438102
 23
150.34683268913221
 33
0.0
210
0.0
220
0.0
230
-1.0
  0
SOLID
  5
2E8A
  8
1
  6
CONTINUOUS
 62
     2
 10
-75.040726442462002
 20
150.34683268913221
 30
0.0
 11
-75.464547288344534
 21
150.32538408944509
 31
0.0
 12
-75.102698101376603
 22
150.32538408944509
 32
0.0
 13
-75.102698101376603
 23
150.32538408944509
 33
0.0
210
0.0
220
0.0
230
-1.0
  0
SOLID
  5
2E8B
  8
1
  6
CONTINUOUS
 62
     2
 10
-75.040726442462002
 20
150.34683268913221
 30
0.0
 11
-75.552959620438102
 21
150.34683268913221
 31
0.0
 12
-75.464547288344534
 22
150.32538408944509
 32
0.0
 13
-75.464547288344534
 23
150.32538408944509
 33
0.0
210
0.0
220
0.0
230
-1.0
  0
SOLID
  5
2E8C
  8
1
  6
CONTINUOUS
 62
     2
 10
-75.202907238970127
 20
150.31097619059921
 30
0.0
 11
-75.405157120402791
 21
150.31097619059921
 31
0.0
 12
-75.253239717125155
 22
150.30373947275751
 32
0.0
 13
-75.253239717125155
 23
150.30373947275751
 33
0.0
210
0.0
220
0.0
230
-1.0
  0
SOLID
  5
2E8D
  8
1
  6
CONTINUOUS
 62
     2
 10
-75.102698101376603
 20
150.32538408944509
 30
0.0
 11
-75.405157120402791
 21
150.31097619059921
 31
0.0
 12
-75.202907238970127
 22
150.31097619059921
 32
0.0
 13
-75.202907238970127
 23
150.31097619059921
 33
0.0
210
0.0
220
0.0
230
-1.0
  0
SOLID
  5
2E8E
  8
1
  6
CONTINUOUS
 62
     2
 10
-75.102698101376603
 20
150.32538408944509
 30
0.0
 11
-75.464547288344534
 21
150.32538408944509
 31
0.0
 12
-75.405157120402791
 22
150.31097619059921
 32
0.0
 13
-75.405157120402791
 23
150.31097619059921
 33
0.0
210
0.0
220
0.0
230
-1.0
  0
LINE
  5
2E8F
  8
1
  6
CONTINUOUS
 62
     2
 10
75.253239717125155
 20
151.90192721545031
 30
0.0
 11
75.405157120402791
 21
151.89469049760871
 31
0.0
  0
LINE
  5
2E90
  8
1
  6
CONTINUOUS
 62
     2
 10
75.202907238970127
 20
151.89469049760871
 30
0.0
 11
75.253239717125155
 21
151.90192721545031
 31
0.0
  0
LINE
  5
2E91
  8
1
  6
CONTINUOUS
 62
     2
 10
75.102698101376603
 20
151.88028259876279
 30
0.0
 11
75.202907238970127
 21
151.89469049760871
 31
0.0
  0
LINE
  5
2E92
  8
1
  6
CONTINUOUS
 62
     2
 10
75.405157120402791
 20
151.89469049760871
 30
0.0
 11
75.464547288344534
 21
151.88028259876279
 31
0.0
  0
LINE
  5
2E93
  8
1
  6
CONTINUOUS
 62
     2
 10
75.040726442462002
 20
151.8588339990757
 30
0.0
 11
75.102698101376603
 21
151.88028259876279
 31
0.0
  0
LINE
  5
2E94
  8
1
  6
CONTINUOUS
 62
     2
 10
75.464547288344534
 20
151.88028259876279
 30
0.0
 11
75.552959620438102
 21
151.8588339990757
 31
0.0
  0
LINE
  5
2E95
  8
1
  6
CONTINUOUS
 62
     2
 10
74.958973239382644
 20
151.83053894038761
 30
0.0
 11
75.040726442462002
 21
151.8588339990757
 31
0.0
  0
LINE
  5
2E96
  8
1
  6
CONTINUOUS
 62
     2
 10
75.552959620438102
 20
151.8588339990757
 30
0.0
 11
75.61491715660695
 21
151.83053894038761
 31
0.0
  0
LINE
  5
2E97
  8
1
  6
CONTINUOUS
 62
     2
 10
74.898550173667203
 20
151.79565366713149
 30
0.0
 11
74.958973239382644
 21
151.83053894038761
 31
0.0
  0
LINE
  5
2E98
  8
1
  6
CONTINUOUS
 62
     2
 10
75.61491715660695
 20
151.83053894038761
 30
0.0
 11
75.691305249784165
 21
151.79565366713149
 31
0.0
  0
LINE
  5
2E99
  8
1
  6
CONTINUOUS
 62
     2
 10
74.827259722127195
 20
151.75449410574419
 30
0.0
 11
74.898550173667203
 21
151.79565366713149
 31
0.0
  0
LINE
  5
2E9A
  8
1
  6
CONTINUOUS
 62
     2
 10
75.691305249784165
 20
151.79565366713149
 30
0.0
 11
75.749105766164163
 21
151.75449410574419
 31
0.0
  0
LINE
  5
2E9B
  8
1
  6
CONTINUOUS
 62
     2
 10
74.772948315014077
 20
151.7074330035874
 30
0.0
 11
74.827259722127195
 21
151.75449410574419
 31
0.0
  0
LINE
  5
2E9C
  8
1
  6
CONTINUOUS
 62
     2
 10
75.749105766164163
 20
151.75449410574419
 30
0.0
 11
75.815193836940381
 21
151.7074330035874
 31
0.0
  0
LINE
  5
2E9D
  8
1
  6
CONTINUOUS
 62
     2
 10
74.712318019300085
 20
151.6548965532896
 30
0.0
 11
74.772948315014077
 21
151.7074330035874
 31
0.0
  0
LINE
  5
2E9E
  8
1
  6
CONTINUOUS
 62
     2
 10
75.815193836940381
 20
151.7074330035874
 30
0.0
 11
75.865287241118452
 21
151.6548965532896
 31
0.0
  0
LINE
  5
2E9F
  8
1
  6
CONTINUOUS
 62
     2
 10
74.667071192894156
 20
151.5973605330804
 30
0.0
 11
74.712318019300085
 21
151.6548965532896
 31
0.0
  0
LINE
  5
2EA0
  8
1
  6
CONTINUOUS
 62
     2
 10
75.865287241118452
 20
151.6548965532896
 30
0.0
 11
75.920147725578374
 21
151.5973605330804
 31
0.0
  0
LINE
  5
2EA1
  8
1
  6
CONTINUOUS
 62
     2
 10
74.618302423519211
 20
151.53534599806841
 30
0.0
 11
74.667071192894156
 21
151.5973605330804
 31
0.0
  0
LINE
  5
2EA2
  8
1
  6
CONTINUOUS
 62
     2
 10
75.920147725578374
 20
151.5973605330804
 30
0.0
 11
75.960002047247855
 21
151.53534599806841
 31
0.0
  0
LINE
  5
2EA3
  8
1
  6
CONTINUOUS
 62
     2
 10
74.584312405565456
 20
151.46941456148591
 30
0.0
 11
74.618302423519211
 21
151.53534599806841
 31
0.0
  0
LINE
  5
2EA4
  8
1
  6
CONTINUOUS
 62
     2
 10
75.960002047247855
 20
151.53534599806841
 30
0.0
 11
76.002373608708098
 21
151.46941456148591
 31
0.0
  0
LINE
  5
2EA5
  8
1
  6
CONTINUOUS
 62
     2
 10
74.548610903371284
 20
151.40016330863219
 30
0.0
 11
74.584312405565456
 21
151.46941456148591
 31
0.0
  0
LINE
  5
2EA6
  8
1
  6
CONTINUOUS
 62
     2
 10
76.002373608708098
 20
151.46941456148591
 30
0.0
 11
76.030097628224283
 21
151.40016330863219
 31
0.0
  0
LINE
  5
2EA7
  8
1
  6
CONTINUOUS
 62
     2
 10
74.527486262730903
 20
151.3282193895771
 30
0.0
 11
74.548610903371284
 21
151.40016330863219
 31
0.0
  0
LINE
  5
2EA8
  8
1
  6
CONTINUOUS
 62
     2
 10
76.030097628224283
 20
151.40016330863219
 30
0.0
 11
76.058899628675761
 21
151.3282193895771
 31
0.0
  0
LINE
  5
2EA9
  8
1
  6
CONTINUOUS
 62
     2
 10
74.505762291973994
 20
151.2542343395923
 30
0.0
 11
74.527486262730903
 21
151.3282193895771
 31
0.0
  0
LINE
  5
2EAA
  8
1
  6
CONTINUOUS
 62
     2
 10
76.058899628675761
 20
151.3282193895771
 30
0.0
 11
76.073159078280113
 21
151.2542343395923
 31
0.0
  0
LINE
  5
2EAB
  8
1
  6
CONTINUOUS
 62
     2
 10
74.498566651066312
 20
151.17887817874731
 30
0.0
 11
74.505762291973994
 21
151.2542343395923
 31
0.0
  0
LINE
  5
2EAC
  8
1
  6
CONTINUOUS
 62
     2
 10
76.073159078280113
 20
151.2542343395923
 30
0.0
 11
76.087682787842624
 21
151.17887817874731
 31
0.0
  0
LINE
  5
2EAD
  8
1
  6
CONTINUOUS
 62
     2
 10
74.491305249784162
 20
151.10283334410391
 30
0.0
 11
74.498566651066312
 21
151.17887817874731
 31
0.0
  0
LINE
  5
2EAE
  8
1
  6
CONTINUOUS
 62
     2
 10
76.087682787842624
 20
151.17887817874731
 30
0.0
 11
76.087682787842624
 21
151.10283334410391
 31
0.0
  0
LINE
  5
2EAF
  8
1
  6
CONTINUOUS
 62
     2
 10
74.498566651066312
 20
151.0267885094606
 30
0.0
 11
74.491305249784162
 21
151.10283334410391
 31
0.0
  0
LINE
  5
2EB0
  8
1
  6
CONTINUOUS
 62
     2
 10
76.087682787842624
 20
151.10283334410391
 30
0.0
 11
76.087682787842624
 21
151.0267885094606
 31
0.0
  0
LINE
  5
2EB1
  8
1
  6
CONTINUOUS
 62
     2
 10
74.505762291973994
 20
150.95143234861561
 30
0.0
 11
74.498566651066312
 21
151.0267885094606
 31
0.0
  0
LINE
  5
2EB2
  8
1
  6
CONTINUOUS
 62
     2
 10
76.087682787842624
 20
151.0267885094606
 30
0.0
 11
76.073159078280113
 21
150.95143234861561
 31
0.0
  0
LINE
  5
2EB3
  8
1
  6
CONTINUOUS
 62
     2
 10
74.527486262730903
 20
150.87744729863081
 30
0.0
 11
74.505762291973994
 21
150.95143234861561
 31
0.0
  0
LINE
  5
2EB4
  8
1
  6
CONTINUOUS
 62
     2
 10
76.073159078280113
 20
150.95143234861561
 30
0.0
 11
76.058899628675761
 21
150.87744729863081
 31
0.0
  0
LINE
  5
2EB5
  8
1
  6
CONTINUOUS
 62
     2
 10
74.548610903371284
 20
150.8055033795757
 30
0.0
 11
74.527486262730903
 21
150.87744729863081
 31
0.0
  0
LINE
  5
2EB6
  8
1
  6
CONTINUOUS
 62
     2
 10
76.058899628675761
 20
150.87744729863081
 30
0.0
 11
76.030097628224297
 21
150.8055033795757
 31
0.0
  0
LINE
  5
2EB7
  8
1
  6
CONTINUOUS
 62
     2
 10
74.584312405565456
 20
150.73625212672201
 30
0.0
 11
74.548610903371284
 21
150.8055033795757
 31
0.0
  0
LINE
  5
2EB8
  8
1
  6
CONTINUOUS
 62
     2
 10
76.030097628224297
 20
150.8055033795757
 30
0.0
 11
76.002373608708098
 21
150.73625212672201
 31
0.0
  0
LINE
  5
2EB9
  8
1
  6
CONTINUOUS
 62
     2
 10
74.618302423519211
 20
150.6703206901395
 30
0.0
 11
74.584312405565456
 21
150.73625212672201
 31
0.0
  0
LINE
  5
2EBA
  8
1
  6
CONTINUOUS
 62
     2
 10
76.002373608708098
 20
150.73625212672201
 30
0.0
 11
75.960002047247855
 21
150.6703206901395
 31
0.0
  0
LINE
  5
2EBB
  8
1
  6
CONTINUOUS
 62
     2
 10
74.667071192894156
 20
150.60830615512751
 30
0.0
 11
74.618302423519211
 21
150.6703206901395
 31
0.0
  0
LINE
  5
2EBC
  8
1
  6
CONTINUOUS
 62
     2
 10
75.960002047247855
 20
150.6703206901395
 30
0.0
 11
75.920147725578374
 21
150.60830615512751
 31
0.0
  0
LINE
  5
2EBD
  8
1
  6
CONTINUOUS
 62
     2
 10
74.712318019300085
 20
150.55077013491831
 30
0.0
 11
74.667071192894156
 21
150.60830615512751
 31
0.0
  0
LINE
  5
2EBE
  8
1
  6
CONTINUOUS
 62
     2
 10
75.920147725578374
 20
150.60830615512751
 30
0.0
 11
75.865287241118452
 21
150.55077013491831
 31
0.0
  0
LINE
  5
2EBF
  8
1
  6
CONTINUOUS
 62
     2
 10
74.772948315014077
 20
150.4982336846206
 30
0.0
 11
74.712318019300085
 21
150.55077013491831
 31
0.0
  0
LINE
  5
2EC0
  8
1
  6
CONTINUOUS
 62
     2
 10
75.865287241118452
 20
150.55077013491831
 30
0.0
 11
75.815193836940381
 21
150.4982336846206
 31
0.0
  0
LINE
  5
2EC1
  8
1
  6
CONTINUOUS
 62
     2
 10
74.827259722127195
 20
150.4511725824637
 30
0.0
 11
74.772948315014077
 21
150.4982336846206
 31
0.0
  0
LINE
  5
2EC2
  8
1
  6
CONTINUOUS
 62
     2
 10
75.815193836940381
 20
150.4982336846206
 30
0.0
 11
75.749105766164163
 21
150.4511725824637
 31
0.0
  0
LINE
  5
2EC3
  8
1
  6
CONTINUOUS
 62
     2
 10
74.898550173667203
 20
150.4100130210764
 30
0.0
 11
74.827259722127195
 21
150.4511725824637
 31
0.0
  0
LINE
  5
2EC4
  8
1
  6
CONTINUOUS
 62
     2
 10
75.749105766164163
 20
150.4511725824637
 30
0.0
 11
75.691305249784165
 21
150.4100130210764
 31
0.0
  0
LINE
  5
2EC5
  8
1
  6
CONTINUOUS
 62
     2
 10
74.958973239382644
 20
150.3751277478203
 30
0.0
 11
74.898550173667203
 21
150.4100130210764
 31
0.0
  0
LINE
  5
2EC6
  8
1
  6
CONTINUOUS
 62
     2
 10
75.691305249784165
 20
150.4100130210764
 30
0.0
 11
75.61491715660695
 21
150.3751277478203
 31
0.0
  0
LINE
  5
2EC7
  8
1
  6
CONTINUOUS
 62
     2
 10
75.040726442462002
 20
150.34683268913221
 30
0.0
 11
74.958973239382644
 21
150.3751277478203
 31
0.0
  0
LINE
  5
2EC8
  8
1
  6
CONTINUOUS
 62
     2
 10
75.61491715660695
 20
150.3751277478203
 30
0.0
 11
75.552959620438102
 21
150.34683268913221
 31
0.0
  0
LINE
  5
2EC9
  8
1
  6
CONTINUOUS
 62
     2
 10
75.102698101376603
 20
150.32538408944509
 30
0.0
 11
75.040726442462002
 21
150.34683268913221
 31
0.0
  0
LINE
  5
2ECA
  8
1
  6
CONTINUOUS
 62
     2
 10
75.552959620438102
 20
150.34683268913221
 30
0.0
 11
75.464547288344534
 21
150.32538408944509
 31
0.0
  0
LINE
  5
2ECB
  8
1
  6
CONTINUOUS
 62
     2
 10
75.405157120402791
 20
150.31097619059921
 30
0.0
 11
75.253239717125155
 21
150.30373947275751
 31
0.0
  0
LINE
  5
2ECC
  8
1
  6
CONTINUOUS
 62
     2
 10
75.253239717125155
 20
150.30373947275751
 30
0.0
 11
75.202907238970127
 21
150.31097619059921
 31
0.0
  0
LINE
  5
2ECD
  8
1
  6
CONTINUOUS
 62
     2
 10
75.202907238970127
 20
150.31097619059921
 30
0.0
 11
75.102698101376603
 21
150.32538408944509
 31
0.0
  0
LINE
  5
2ECE
  8
1
  6
CONTINUOUS
 62
     2
 10
75.464547288344534
 20
150.32538408944509
 30
0.0
 11
75.405157120402791
 21
150.31097619059921
 31
0.0
  0
ENDBLK
  5
2ED0
  8
0
  0
BLOCK
  8
0
  2
*U54
 70
     1
 10
0.0
 20
0.0
 30
0.0
  3
*U54
  1

  0
TEXT
  5
2ED2
  8
1
 62
     3
 10
65.575441606210575
 20
152.10283334410391
 30
0.0
 40
3.2000000000000002
  1
3
 50
0.0001388888891441
 41
0.63
  7
CONVERTER_1
  0
ENDBLK
  5
2ED4
  8
0
  0
BLOCK
  8
0
  2
*U55
 70
     1
 10
0.0
 20
0.0
 30
0.0
  3
*U55
  1

  0
TEXT
  5
2ED6
  8
1
 62
     3
 10
185.91600167321849
 20
140.89736901937931
 30
0.0
 40
3.2000000000000002
  1
30\U+00B0
 50
315.00000000000023
 41
0.63
  7
CONVERTER_1
  0
ENDBLK
  5
2ED8
  8
0
  0
BLOCK
  8
0
  2
*U56
 70
     1
 10
0.0
 20
0.0
 30
0.0
  3
*U56
  1

  0
TEXT
  5
2EDA
  8
1
 62
     3
 10
187.5814371675842
 20
70.484676826294603
 30
0.0
 40
3.2000000000000002
  1
15\U+00B0
 50
45.000000000000881
 41
0.63
  7
CONVERTER_1
  0
ENDBLK
  5
2EDC
  8
0
  0
ENDSEC
  0
SECTION
  2
ENTITIES
  0
INSERT
  5
1BB5
  8
0
  2
ZUWAKU-A4H
 10
0.0
 20
0.0
 30
0.0
1001
GENIUS_GENOREF_13
1005
1C93
1001
GENIUS_GENOBJ-N-SDF_13
1002
{
1000
OWNER
1000
GEN
1002
}
1001
GENIUS_GENODEF_13
1002
{
1000
HIER
1070
     0
1002
}
1002
{
1000
MANEDIT
1070
     0
1002
}
1002
{
1000
NOSEL
1070
     0
1002
}
1002
{
1000
BEHIND
1070
     0
1002
}
1002
{
1000
OTHER
1070
     0
1002
}
1002
{
1000
REACTOR
1002
}
1001
GENIUS_GENSCREG_13
1040
1.0
1040
1.0
1011
12.95699999999508
1021
0.0
1031
0.0
1021
10.0
1031
0.0
1011
289.45700000038528
1021
0.0
1031
0.0
1021
201.1206999999936
1031
0.0
1070
     3
  0
POINT
  5
1C93
  8
0
 10
0.0
 20
0.0
 30
0.0
1001
GENIUS_GENOLIS_13
1002
{
1000
ENT
1005
1C84
1005
1BB5
1002
}
1001
GENIUS_GENOENT_13
1002
{
1000
MYREF
1005
1C93
1002
}
1002
{
1000
GRP
1005
0
1002
}
1001
GENIUS_GENOBJ-N-TIT_13
1002
{
1000
OWNER
1000
GEN
1002
}
1001
GENIUS_GENTITLE_13
1002
{
1000
BORDER
1000
C:\Program Files\Autodesk\ACADM 2008\Acadm\gen\Dwg\Format\ZUWAKU-A4H
1002
}
1002
{
1000
TITLE
1000
C:\Program Files\Autodesk\ACADM 2008\Acadm\gen\Dwg\Title\N_Title
1002
}
1002
{
1000
ADDITIONAL1
1000

1002
}
1002
{
1000
ADDITIONAL2
1000

1002
}
1002
{
1000
SCALE
1000
1:1
1002
}
1002
{
1000
TITLESTD
1000
JIS
1002
}
1002
{
1000
HRA
1005
1BB5
1002
}
1002
{
1000
HTIT
1005
1C84
1002
}
1002
{
1000
INVTXTID
1005
0
1002
}
1002
{
1000
UNCHG
1002
{
1000
GEN-TITLE-SIZ
1000
GEN-TITLE-SCA
1002
}
1002
}
1002
{
1000
GENIUSID
1005
1C93
1002
}
1001
GENIUS_GENODEF_13
1002
{
1000
HIER
1070
     1
1002
}
1002
{
1000
MANEDIT
1070
     1
1002
}
1002
{
1000
NOSEL
1070
     0
1002
}
1002
{
1000
BEHIND
1070
     0
1002
}
1002
{
1000
OTHER
1070
     0
1002
}
1002
{
1000
REACTOR
1002
}
  0
INSERT
  5
20F2
  8
0
 66
     1
  2
A$C1C06296A
 10
12.95700013162593
 20
9.9999998268887111
 30
0.0
  0
ATTRIB
  5
20F3
  8
AM_BOR
 62
     7
 10
127.267709707009
 20
10.5
 30
0.0
 40
3.0
  1

 11
127.267709707009
 21
12.0
 31
0.0
  2
SETS｛20｝
 70
     0
 74
     2
1001
AcDbAttr
1070
     0
1070
     1
  0
ATTRIB
  5
20F4
  8
AM_BOR
 62
     7
 10
32.017709707009089
 20
10.5
 30
0.0
 40
3.0
  1

 11
32.017709707009089
 21
12.0
 31
0.0
  2
REMARKS｛20｝
 70
     0
 74
     2
1001
AcDbAttr
1070
     0
1070
     1
  0
ATTRIB
  5
20F5
  8
AM_BOR
 62
     7
 10
127.267709707009
 20
15.5
 30
0.0
 40
3.0
  1

 11
127.267709707009
 21
17.0
 31
0.0
  2
SETS｛20｝
 70
     0
 74
     2
1001
AcDbAttr
1070
     0
1070
     1
  0
ATTRIB
  5
20F6
  8
AM_BOR
 62
     7
 10
32.017709707009089
 20
15.5
 30
0.0
 40
3.0
  1

 11
32.017709707009089
 21
17.0
 31
0.0
  2
REMARKS｛20｝
 70
     0
 74
     2
1001
AcDbAttr
1070
     0
1070
     1
  0
ATTRIB
  5
20F7
  8
AM_BOR
 62
     7
 10
127.267709707009
 20
20.5
 30
0.0
 40
3.0
  1

 11
127.267709707009
 21
22.0
 31
0.0
  2
SETS｛20｝
 70
     0
 74
     2
1001
AcDbAttr
1070
     0
1070
     1
  0
ATTRIB
  5
20F8
  8
AM_BOR
 62
     7
 10
32.017709707009089
 20
20.5
 30
0.0
 40
3.0
  1

 11
32.017709707009089
 21
22.0
 31
0.0
  2
REMARKS｛20｝
 70
     0
 74
     2
1001
AcDbAttr
1070
     0
1070
     1
  0
ATTRIB
  5
20F9
  8
AM_BOR
 62
     7
 10
127.20700000001921
 20
33.5
 30
0.0
 40
3.0
  1
ET-3
 11
127.20700000001921
 21
35.0
 31
0.0
  2
ART_NO｛20｝
 70
     0
 74
     2
1001
AcDbAttr
1070
     0
1070
     1
  0
ATTRIB
  5
20FA
  8
AM_BOR
 62
     7
 10
31.95700000001921
 20
33.5
 30
0.0
 40
3.0
  1
トイレ金物スペーサ
 11
31.95700000001921
 21
35.0
 31
0.0
  2
ARTICLE｛20｝
 70
     0
 74
     2
1001
AcDbAttr
1070
     0
1070
     1
  0
ATTRIB
  5
20FB
  8
AM_BOR
 62
     7
 10
127.20700000001921
 20
27.0
 30
0.0
 40
3.0
  1

 11
127.20700000001921
 21
28.5
 31
0.0
  2
FINISH｛20｝
 70
     0
 74
     2
1001
AcDbAttr
1070
     0
1070
     1
  0
ATTRIB
  5
20FC
  8
AM_BOR
 62
     7
 10
31.95700000001921
 20
27.0
 30
0.0
 40
3.0
  1

 11
31.95700000001921
 21
28.5
 31
0.0
  2
MATERIAK｛20｝
 70
     0
 74
     2
1001
AcDbAttr
1070
     0
1070
     1
  0
SEQEND
  5
20FD
  8
0
  0
INSERT
  5
2A27
  8
0
  2
*U23
 10
0.0
 20
0.0
 30
0.0
  0
INSERT
  5
2A28
  8
0
  2
*U24
 10
0.0
 20
0.0
 30
0.0
  0
INSERT
  5
2A29
  8
0
  2
*U25
 10
0.0
 20
0.0
 30
0.0
  0
INSERT
  5
2A2A
  8
0
  2
*U26
 10
0.0
 20
0.0
 30
0.0
  0
INSERT
  5
2A2B
  8
0
  2
*U27
 10
0.0
 20
0.0
 30
0.0
  0
LINE
  5
2A2C
  8
2
  6
CONTINUOUS
 62
     2
 10
227.95700000038531
 20
195.12069999985769
 30
0.0
 11
227.95700000038531
 21
189.12069999985769
 31
0.0
  0
LINE
  5
2A2D
  8
2
  6
CONTINUOUS
 62
     2
 10
219.95700000038531
 20
195.12069999985769
 30
0.0
 11
219.95700000038531
 21
189.12069999985769
 31
0.0
  0
LINE
  5
2A2E
  8
2
  6
CONTINUOUS
 62
     2
 10
195.45700000038531
 20
195.12069999985769
 30
0.0
 11
195.45700000038531
 21
189.12069999985769
 31
0.0
  0
LINE
  5
2A2F
  8
2
  6
CONTINUOUS
 62
     2
 10
186.45700000038531
 20
195.12069999985769
 30
0.0
 11
186.45700000038531
 21
189.12069999985769
 31
0.0
  0
LINE
  5
2A30
  8
2
  6
CONTINUOUS
 62
     2
 10
166.45700000038531
 20
195.12069999985769
 30
0.0
 11
166.45700000038531
 21
189.12069999985769
 31
0.0
  0
LINE
  5
2A31
  8
2
  6
CONTINUOUS
 62
     6
 10
289.45700000038528
 20
195.12069999985769
 30
0.0
 11
289.45700000038528
 21
189.12069999985769
 31
0.0
  0
LINE
  5
2A32
  8
2
  6
CONTINUOUS
 62
     2
 10
166.45700000038531
 20
195.12069999985769
 30
0.0
 11
289.45700000038528
 21
195.12069999985769
 31
0.0
  0
LINE
  5
2A33
  8
2
  6
CONTINUOUS
 62
     6
 10
289.45700000038528
 20
201.12069999985769
 30
0.0
 11
289.45700000038528
 21
195.12069999985769
 31
0.0
  0
LINE
  5
2A34
  8
2
  6
CONTINUOUS
 62
     6
 10
289.45700000038528
 20
201.12069999985769
 30
0.0
 11
231.45700000038531
 21
201.12069999985769
 31
0.0
  0
LINE
  5
2A35
  8
2
  6
CONTINUOUS
 62
     2
 10
166.45700000038531
 20
201.12069999985769
 30
0.0
 11
166.45700000038531
 21
195.12069999985769
 31
0.0
  0
LINE
  5
2A36
  8
2
  6
CONTINUOUS
 62
     2
 10
186.45700000038531
 20
201.12069999985769
 30
0.0
 11
186.45700000038531
 21
195.12069999985769
 31
0.0
  0
LINE
  5
2A37
  8
2
  6
CONTINUOUS
 62
     6
 10
176.45700000038531
 20
201.12069999985769
 30
0.0
 11
166.45700000038531
 21
201.12069999985769
 31
0.0
  0
LINE
  5
2A38
  8
2
  6
CONTINUOUS
 62
     2
 10
195.45700000038531
 20
201.12069999985769
 30
0.0
 11
195.45700000038531
 21
195.12069999985769
 31
0.0
  0
LINE
  5
2A39
  8
2
  6
CONTINUOUS
 62
     6
 10
194.95700000038519
 20
201.12069999985769
 30
0.0
 11
176.45700000038531
 21
201.12069999985769
 31
0.0
  0
LINE
  5
2A3A
  8
2
  6
CONTINUOUS
 62
     2
 10
219.95700000038531
 20
201.12069999985769
 30
0.0
 11
219.95700000038531
 21
195.12069999985769
 31
0.0
  0
LINE
  5
2A3B
  8
2
  6
CONTINUOUS
 62
     6
 10
216.45700000038531
 20
201.12069999985769
 30
0.0
 11
191.45700000038531
 21
201.12069999985769
 31
0.0
  0
LINE
  5
2A3C
  8
2
  6
CONTINUOUS
 62
     2
 10
227.95700000038531
 20
201.12069999985769
 30
0.0
 11
227.95700000038531
 21
195.12069999985769
 31
0.0
  0
LINE
  5
2A3D
  8
2
  6
CONTINUOUS
 62
     6
 10
231.45700000038531
 20
201.12069999985769
 30
0.0
 11
216.45700000038531
 21
201.12069999985769
 31
0.0
  0
LINE
  5
2A3E
  8
2
  6
CONTINUOUS
 62
     2
 10
166.45700000038531
 20
189.12069999985769
 30
0.0
 11
289.45700000038528
 21
189.12069999985769
 31
0.0
  0
INSERT
  5
2A3F
  8
0
  2
*U28
 10
0.0
 20
0.0
 30
0.0
  0
INSERT
  5
2A40
  8
0
  2
*U29
 10
0.0
 20
0.0
 30
0.0
  0
INSERT
  5
2AE7
  8
0
  2
TOP__3
 10
345.18219065281357
 20
34.664159742643562
 30
0.0
  0
LINE
  5
2AE8
  8
1
  6
CONTINUOUS
 62
     7
 10
76.791305249784159
 20
77.133288082866869
 30
0.0
 11
76.791305249784159
 21
90.504946730780958
 31
0.0
  0
LINE
  5
2AE9
  8
1
  6
CONTINUOUS
 62
     7
 10
76.791305249784159
 20
135.67660537869509
 30
0.0
 11
76.791305249784159
 21
133.94455457112599
 31
0.0
  0
LINE
  5
2AEA
  8
1
  6
CONTINUOUS
 62
     7
 10
75.291305249784159
 20
135.67660537869509
 30
0.0
 11
75.291305249784159
 21
133.94455457112599
 31
0.0
  0
LINE
  5
2AEB
  8
1
  6
CONTINUOUS
 62
     7
 10
75.291305249784159
 20
135.67660537869509
 30
0.0
 11
76.791305249784159
 21
135.67660537869509
 31
0.0
  0
LINE
  5
2AEC
  8
1
  6
CONTINUOUS
 62
     7
 10
75.291305249784159
 20
122.304946730781
 30
0.0
 11
75.291305249784159
 21
116.40494673078101
 31
0.0
  0
LINE
  5
2AED
  8
1
  6
CONTINUOUS
 62
     7
 10
75.291305249784159
 20
122.304946730781
 30
0.0
 11
76.791305249784159
 21
122.304946730781
 31
0.0
  0
LINE
  5
2AEE
  8
1
  6
CONTINUOUS
 62
     7
 10
75.291305249784159
 20
77.133288082866869
 30
0.0
 11
75.291305249784159
 21
74.354946730780881
 31
0.0
  0
LINE
  5
2AEF
  8
1
  6
CONTINUOUS
 62
     7
 10
75.291305249784159
 20
77.133288082866869
 30
0.0
 11
76.791305249784159
 21
77.133288082866869
 31
0.0
  0
LINE
  5
2AF0
  8
1
  6
CONTINUOUS
 62
     7
 10
75.291305249784159
 20
90.504946730780958
 30
0.0
 11
75.291305249784159
 21
89.504946730780972
 31
0.0
  0
LINE
  5
2AF1
  8
1
  6
CONTINUOUS
 62
     7
 10
75.291305249784159
 20
90.504946730780958
 30
0.0
 11
76.791305249784159
 21
90.504946730780958
 31
0.0
  0
LINE
  5
2AF2
  8
1
  6
CONTINUOUS
 62
     7
 10
75.291305249784159
 20
89.504946730780972
 30
0.0
 11
75.291305249784159
 21
86.454946730780847
 31
0.0
  0
LINE
  5
2AF3
  8
1
  6
CONTINUOUS
 62
     7
 10
75.291305249784159
 20
89.504946730780972
 30
0.0
 11
76.791305249784159
 21
89.504946730780972
 31
0.0
  0
LINE
  5
2AF4
  8
AM_7
 62
     2
 10
154.5122218048426
 20
129.10494673078091
 30
0.0
 11
154.5122218048426
 21
135.7049467307809
 31
0.0
  0
LINE
  5
2AF5
  8
AM_7
 62
     2
 10
157.81222180484281
 20
132.40494673078081
 30
0.0
 11
151.2122218048429
 21
132.40494673078081
 31
0.0
  0
LINE
  5
2AF6
  8
AM_7
 62
     2
 10
154.5122218048426
 20
77.104946730780881
 30
0.0
 11
154.5122218048426
 21
83.704946730780847
 31
0.0
  0
LINE
  5
2AF7
  8
AM_7
 62
     2
 10
157.81222180484281
 20
80.404946730780892
 30
0.0
 11
151.2122218048429
 21
80.404946730780892
 31
0.0
  0
LINE
  5
2AF8
  8
1
  6
CONTINUOUS
 62
     7
 10
72.291305249784145
 20
141.40494673078101
 30
0.0
 11
75.291305249784159
 21
141.40494673078101
 31
0.0
  0
LINE
  5
2AF9
  8
1
  6
CONTINUOUS
 62
     7
 10
75.291305249784159
 20
141.40494673078101
 30
0.0
 11
75.291305249784159
 21
137.89395278900301
 31
0.0
  0
LINE
  5
2AFA
  8
1
  6
CONTINUOUS
 62
     7
 10
75.291305249784159
 20
71.404946730780978
 30
0.0
 11
72.291305249784145
 21
71.404946730780978
 31
0.0
  0
LINE
  5
2AFB
  8
1
  6
CONTINUOUS
 62
     7
 10
72.291305249784145
 20
71.404946730780978
 30
0.0
 11
72.291305249784145
 21
74.354946730780881
 31
0.0
  0
LINE
  5
2AFC
  8
AM_7
 62
     2
 10
66.307325005965708
 20
106.40494673078101
 30
0.0
 11
81.204104723305477
 21
106.40494673078101
 31
0.0
  0
LINE
  5
2AFD
  8
AM_7
 62
     2
 10
67.567110320454617
 20
80.404946730780892
 30
0.0
 11
80.129373080195705
 21
80.404946730780892
 31
0.0
  0
LINE
  5
2AFE
  8
AM_7
 62
     2
 10
67.567110320454617
 20
132.40494673078081
 30
0.0
 11
81.704104723305477
 21
132.40494673078081
 31
0.0
  0
LINE
  5
2AFF
  8
AM_3
 62
     2
 10
72.291305249784145
 20
135.40494673078081
 30
0.0
 11
75.291305249784159
 21
135.40494673078081
 31
0.0
  0
LINE
  5
2B00
  8
1
  6
CONTINUOUS
 62
     7
 10
75.291305249784159
 20
137.89395278900301
 30
0.0
 11
75.291305249784159
 21
135.67660537869509
 31
0.0
  0
LINE
  5
2B01
  8
1
  6
CONTINUOUS
 62
     7
 10
72.291305249784145
 20
137.89395278900301
 30
0.0
 11
72.291305249784145
 21
141.40494673078101
 31
0.0
  0
LINE
  5
2B02
  8
AM_3
 62
     2
 10
72.291305249784145
 20
129.40494673078081
 30
0.0
 11
75.291305249784159
 21
129.40494673078081
 31
0.0
  0
LINE
  5
2B03
  8
1
  6
CONTINUOUS
 62
     7
 10
75.291305249784159
 20
126.3549467307809
 30
0.0
 11
75.291305249784159
 21
125.7635601732582
 31
0.0
  0
LINE
  5
2B04
  8
AM_3
 62
     2
 10
72.291305249784145
 20
114.90494673078091
 30
0.0
 11
75.291305249784159
 21
114.90494673078091
 31
0.0
  0
LINE
  5
2B05
  8
1
  6
CONTINUOUS
 62
     7
 10
75.291305249784159
 20
116.40494673078101
 30
0.0
 11
75.291305249784159
 21
96.404946730780978
 31
0.0
  0
LINE
  5
2B06
  8
AM_3
 62
     2
 10
72.291305249784145
 20
97.904946730780978
 30
0.0
 11
75.291305249784159
 21
97.904946730780978
 31
0.0
  0
LINE
  5
2B07
  8
1
  6
CONTINUOUS
 62
     7
 10
72.291305249784145
 20
96.404946730780978
 30
0.0
 11
72.291305249784145
 21
116.40494673078101
 31
0.0
  0
LINE
  5
2B08
  8
1
  6
CONTINUOUS
 62
     7
 10
75.291305249784159
 20
96.404946730780978
 30
0.0
 11
75.291305249784159
 21
90.504946730780958
 31
0.0
  0
LINE
  5
2B09
  8
AM_3
 62
     2
 10
72.291305249784145
 20
83.404946730780878
 30
0.0
 11
75.291305249784159
 21
83.404946730780878
 31
0.0
  0
LINE
  5
2B0A
  8
1
  6
CONTINUOUS
 62
     7
 10
75.291305249784159
 20
86.454946730780847
 30
0.0
 11
75.291305249784159
 21
77.133288082866869
 31
0.0
  0
LINE
  5
2B0B
  8
AM_3
 62
     2
 10
75.291305249784159
 20
77.404946730780892
 30
0.0
 11
72.291305249784145
 21
77.404946730780892
 31
0.0
  0
LINE
  5
2B0C
  8
1
  6
CONTINUOUS
 62
     7
 10
72.291305249784145
 20
74.354946730780881
 30
0.0
 11
72.291305249784145
 21
96.404946730780978
 31
0.0
  0
LINE
  5
2B0D
  8
1
  6
CONTINUOUS
 62
     7
 10
75.291305249784159
 20
74.354946730780881
 30
0.0
 11
75.291305249784159
 21
71.404946730780978
 31
0.0
  0
LINE
  5
2B0E
  8
AM_7
 62
     2
 10
197.7122218048429
 20
106.40494673078101
 30
0.0
 11
111.31222180484281
 21
106.40494673078101
 31
0.0
  0
LINE
  5
2B0F
  8
AM_7
 62
     2
 10
154.5122218048426
 20
149.60494673078099
 30
0.0
 11
154.5122218048426
 21
63.204946730780989
 31
0.0
  0
LINE
  5
2B10
  8
1
  6
CONTINUOUS
 62
     7
 10
138.6122218048427
 20
78.865338890435879
 30
0.0
 11
137.6122218048427
 21
77.133288082866869
 31
0.0
  0
LINE
  5
2B11
  8
1
  6
CONTINUOUS
 62
     7
 10
125.2405631569287
 20
89.504946730780972
 30
0.0
 11
126.9726139644973
 21
90.504946730780958
 31
0.0
  0
LINE
  5
2B12
  8
1
  6
CONTINUOUS
 62
     7
 10
170.41222180484269
 20
133.94455457112599
 30
0.0
 11
171.41222180484269
 21
135.67660537869509
 31
0.0
  0
LINE
  5
2B13
  8
1
  6
CONTINUOUS
 62
     7
 10
182.05182964518769
 20
122.304946730781
 30
0.0
 11
183.7838804527567
 21
123.304946730781
 31
0.0
  0
LINE
  5
2B14
  8
1
  6
CONTINUOUS
 62
     7
 10
72.291305249784145
 20
116.40494673078101
 30
0.0
 11
72.291305249784145
 21
137.89395278900301
 31
0.0
  0
LINE
  5
2B15
  8
AM_7
 62
     2
 10
126.0685454265311
 20
134.84862310909239
 30
0.0
 11
184.12961619016579
 21
76.787552345457982
 31
0.0
  0
LINE
  5
2B16
  8
AM_7
 62
     2
 10
125.8535044237065
 20
77.746229349644523
 30
0.0
 11
183.3236228131548
 21
135.2163477390929
 31
0.0
  0
LINE
  5
2B17
  8
1
  6
CONTINUOUS
 62
     7
 10
173.87083524731941
 20
81.176310509519794
 30
0.0
 11
175.08835810533751
 21
79.589603828937157
 31
0.0
  0
LINE
  5
2B18
  8
1
  6
CONTINUOUS
 62
     7
 10
179.74085802610341
 20
87.046333288303657
 30
0.0
 11
181.3275647066865
 21
85.828810430286154
 31
0.0
  0
LINE
  5
2B19
  8
1
  6
CONTINUOUS
 62
     7
 10
127.69687890299851
 20
126.9810830312757
 30
0.0
 11
129.28358558358141
 21
125.7635601732582
 31
0.0
  0
LINE
  5
2B1A
  8
1
  6
CONTINUOUS
 62
     7
 10
133.93608550434749
 20
133.2202896326246
 30
0.0
 11
135.15360836236559
 21
131.6335829520421
 31
0.0
  0
LINE
  5
2B1B
  8
1
  6
CONTINUOUS
 62
     7
 10
76.791305249784159
 20
125.7635601732582
 30
0.0
 11
75.291305249784159
 21
125.7635601732582
 31
0.0
  0
LINE
  5
2B1C
  8
1
  6
CONTINUOUS
 62
     7
 10
76.791305249784159
 20
125.7635601732582
 30
0.0
 11
76.791305249784159
 21
122.304946730781
 31
0.0
  0
LINE
  5
2B1D
  8
1
  6
CONTINUOUS
 62
     7
 10
75.291305249784159
 20
125.7635601732582
 30
0.0
 11
75.291305249784159
 21
122.304946730781
 31
0.0
  0
LINE
  5
2B1E
  8
1
  6
CONTINUOUS
 62
     7
 10
75.291305249784159
 20
126.9810830312757
 30
0.0
 11
76.791305249784159
 21
126.9810830312757
 31
0.0
  0
LINE
  5
2B1F
  8
1
  6
CONTINUOUS
 62
     7
 10
76.791305249784159
 20
126.9810830312757
 30
0.0
 11
76.791305249784159
 21
125.7635601732582
 31
0.0
  0
LINE
  5
2B20
  8
1
  6
CONTINUOUS
 62
     7
 10
75.291305249784159
 20
126.9810830312757
 30
0.0
 11
75.291305249784159
 21
126.3549467307809
 31
0.0
  0
LINE
  5
2B21
  8
1
  6
CONTINUOUS
 62
     7
 10
76.791305249784159
 20
133.2202896326246
 30
0.0
 11
75.291305249784159
 21
133.2202896326246
 31
0.0
  0
LINE
  5
2B22
  8
1
  6
CONTINUOUS
 62
     7
 10
76.791305249784159
 20
133.2202896326246
 30
0.0
 11
76.791305249784159
 21
126.9810830312757
 31
0.0
  0
LINE
  5
2B23
  8
1
  6
CONTINUOUS
 62
     7
 10
75.291305249784159
 20
133.2202896326246
 30
0.0
 11
75.291305249784159
 21
126.9810830312757
 31
0.0
  0
LINE
  5
2B24
  8
1
  6
CONTINUOUS
 62
     7
 10
75.291305249784159
 20
133.94455457112599
 30
0.0
 11
76.791305249784159
 21
133.94455457112599
 31
0.0
  0
LINE
  5
2B25
  8
1
  6
CONTINUOUS
 62
     7
 10
76.791305249784159
 20
133.94455457112599
 30
0.0
 11
76.791305249784159
 21
133.2202896326246
 31
0.0
  0
LINE
  5
2B26
  8
1
  6
CONTINUOUS
 62
     7
 10
75.291305249784159
 20
133.94455457112599
 30
0.0
 11
75.291305249784159
 21
133.2202896326246
 31
0.0
  0
ARC
  5
2B27
  8
1
  6
CONTINUOUS
 62
     7
 10
154.5122218048426
 20
106.40494673078101
 30
0.0
 40
10.0
 50
90.0
 51
180.0
  0
ARC
  5
2B28
  8
1
  6
CONTINUOUS
 62
     7
 10
154.5122218048426
 20
106.40494673078101
 30
0.0
 40
10.0
 50
180.0
 51
270.0
  0
ARC
  5
2B29
  8
1
  6
CONTINUOUS
 62
     7
 10
154.5122218048426
 20
132.40494673078081
 30
0.0
 40
3.0000000000000502
 50
53.804862406581478
 51
90.0
  0
ARC
  5
2B2A
  8
1
  6
CONTINUOUS
 62
     7
 10
154.5122218048426
 20
132.40494673078081
 30
0.0
 40
3.0
 50
180.0
 51
270.0
  0
ARC
  5
2B2B
  8
1
  6
CONTINUOUS
 62
     7
 10
154.5122218048426
 20
132.40494673078081
 30
0.0
 40
3.0
 50
90.0
 51
180.0
  0
ARC
  5
2B2C
  8
1
  6
CONTINUOUS
 62
     7
 10
154.5122218048426
 20
106.40494673078101
 30
0.0
 40
31.79999999999993
 50
209.99999999999719
 51
239.99999999999989
  0
ARC
  5
2B2D
  8
1
  6
CONTINUOUS
 62
     7
 10
154.5122218048426
 20
106.40494673078101
 30
0.0
 40
33.799999999999912
 50
225.00000000000441
 51
240.0
  0
ARC
  5
2B2E
  8
1
  6
CONTINUOUS
 62
     7
 10
154.5122218048426
 20
106.40494673078101
 30
0.0
 40
31.79999999999993
 50
29.999999999997279
 51
59.999999999999972
  0
ARC
  5
2B2F
  8
1
  6
CONTINUOUS
 62
     7
 10
154.5122218048426
 20
106.40494673078101
 30
0.0
 40
33.799999999999912
 50
45.00000000000437
 51
59.999999999999972
  0
ARC
  5
2B30
  8
1
  6
CONTINUOUS
 62
     7
 10
154.5122218048426
 20
106.40494673078101
 30
0.0
 40
33.800000000000097
 50
29.999999999997279
 51
45.00000000000437
  0
ARC
  5
2B31
  8
1
  6
CONTINUOUS
 62
     7
 10
154.5122218048426
 20
106.40494673078101
 30
0.0
 40
33.799999999999912
 50
209.99999999999719
 51
225.00000000000441
  0
ARC
  5
2B32
  8
1
  6
CONTINUOUS
 62
     7
 10
154.5122218048426
 20
106.40494673078101
 30
0.0
 40
31.79999999999988
 50
307.499999999995
 51
322.50000000000352
  0
ARC
  5
2B33
  8
1
  6
CONTINUOUS
 62
     7
 10
154.5122218048426
 20
106.40494673078101
 30
0.0
 40
33.800000000000132
 50
307.499999999995
 51
322.50000000000352
  0
ARC
  5
2B34
  8
1
  6
CONTINUOUS
 62
     7
 10
154.5122218048426
 20
106.40494673078101
 30
0.0
 40
31.79999999999977
 50
127.499999999995
 51
142.5000000000035
  0
ARC
  5
2B35
  8
1
  6
CONTINUOUS
 62
     7
 10
154.5122218048426
 20
106.40494673078101
 30
0.0
 40
33.800000000000061
 50
127.5000000000053
 51
142.5000000000035
  0
ARC
  5
2B36
  8
1
  6
CONTINUOUS
 62
     7
 10
154.5122218048426
 20
106.40494673078101
 30
0.0
 40
36.0
 50
0.0
 51
90.0
  0
ARC
  5
2B37
  8
1
  6
CONTINUOUS
 62
     7
 10
154.5122218048426
 20
106.40494673078101
 30
0.0
 40
36.0
 50
270.0
 51
0.0
  0
ARC
  5
2B38
  8
1
  6
CONTINUOUS
 62
     7
 10
154.5122218048426
 20
106.40494673078101
 30
0.0
 40
36.0
 50
90.0
 51
270.0
  0
ARC
  5
2B39
  8
1
  6
CONTINUOUS
 62
     7
 10
154.5122218048426
 20
106.40494673078101
 30
0.0
 40
10.0
 50
270.0
 51
90.0
  0
ARC
  5
2B3A
  8
1
  6
CONTINUOUS
 62
     7
 10
154.5122218048426
 20
132.40494673078081
 30
0.0
 40
3.0
 50
270.0
 51
53.804862406581478
  0
CIRCLE
  5
2B3B
  8
1
  6
CONTINUOUS
 62
     7
 10
154.5122218048426
 20
80.404946730780892
 30
0.0
 40
3.0
  0
LINE
  5
2B3C
  8
1
 62
     2
 10
157.6418249840047
 20
96.907284705788825
 30
0.0
 11
159.86833259785121
 21
94.048583204300883
 31
0.0
  0
LINE
  5
2B3D
  8
1
 62
     2
 10
157.6418249840047
 20
96.907284705788825
 30
0.0
 11
158.1406863885712
 21
93.318322776740374
 31
0.0
  0
INSERT
  5
2B3E
  8
0
  2
*U44
 10
0.0
 20
0.0
 30
0.0
  0
LINE
  5
2B3F
  8
1
 62
     2
 10
156.2838333532508
 20
134.82597802375241
 30
0.0
 11
157.22165552675949
 21
138.32597802375241
 31
0.0
  0
LINE
  5
2B40
  8
1
 62
     2
 10
156.2838333532508
 20
134.82597802375241
 30
0.0
 11
158.84601117974199
 21
137.38815585024341
 31
0.0
  0
INSERT
  5
2B41
  8
0
  2
*U45
 10
0.0
 20
0.0
 30
0.0
  0
INSERT
  5
2B42
  8
0
  2
*U46
 10
0.0
 20
0.0
 30
0.0
  0
INSERT
  5
2B43
  8
0
  2
*U47
 10
0.0
 20
0.0
 30
0.0
  0
LINE
  5
2B44
  8
1
  6
CONTINUOUS
 62
     2
 10
75.291305249784159
 20
151.10283334410391
 30
0.0
 11
76.791305249784159
 21
151.10283334410391
 31
0.0
  0
LINE
  5
2B45
  8
1
  6
CONTINUOUS
 62
     2
 10
76.791305249784159
 20
151.10283334410391
 30
0.0
 11
82.445148489462895
 21
151.10283334410391
 31
0.0
  0
LINE
  5
2B46
  8
1
  6
CONTINUOUS
 62
     2
 10
75.291305249784159
 20
142.40494673078101
 30
0.0
 11
75.291305249784159
 21
152.10283334410391
 31
0.0
  0
LINE
  5
2B47
  8
1
  6
CONTINUOUS
 62
     2
 10
76.791305249784159
 20
136.67660537869509
 30
0.0
 11
76.791305249784159
 21
152.10283334410391
 31
0.0
  0
CIRCLE
  5
2B48
  8
1
 62
     2
 10
75.291305249784159
 20
151.10283334410391
 30
0.0
 40
0.8
  0
INSERT
  5
2B49
  8
1
  6
CONTINUOUS
 62
     2
  2
*U48
 10
0.0
 20
0.0
 30
0.0
1001
ACAD
1002
{
1000
R14_HATCH_DATA
1000
2B49
1011
1.0
1021
0.0
1031
0.0
1021
0.0
1031
0.0
1011
0.0
1021
0.0
1031
0.0
1021
1.0
1031
0.0
1011
0.0
1021
0.0
1031
0.0
1021
0.0
1031
1.0
1040
0.0
1010
0.0
1020
0.0
1030
1.0
1000
SOLID
1070
     1
1070
     1
1071
        1
1071
        1
1071
        1
1070
     2
1040
75.291305249784159
1040
151.10283334410391
1040
0.8
1040
-3.1415926535897931
1040
3.1415926535897931
1070
     1
1071
        0
1070
     0
1070
     1
1071
        1
1040
-1904.404171088657
1040
-77.058022116770019
1040
0.0
1002
}
  0
LINE
  5
2B4A
  8
1
 62
     2
 10
76.791305249784159
 20
151.10283334410391
 30
0.0
 11
79.03130524978485
 21
151.70303953514971
 31
0.0
  0
LINE
  5
2B4B
  8
1
 62
     2
 10
76.791305249784159
 20
151.10283334410391
 30
0.0
 11
79.03130524978485
 21
150.50262715305831
 31
0.0
  0
INSERT
  5
2B4C
  8
0
  2
*U49
 10
0.0
 20
0.0
 30
0.0
  0
LINE
  5
2B4D
  8
1
  6
CONTINUOUS
 62
     2
 10
136.3438825424067
 20
172.37370440142649
 30
0.0
 11
88.543464134197279
 21
124.57328599321571
 31
0.0
  0
LINE
  5
2B4E
  8
1
  6
CONTINUOUS
 62
     2
 10
177.705324227761
 20
131.012262716073
 30
0.0
 11
135.6367757612193
 21
173.08081118261299
 31
0.0
  0
LINE
  5
2B4F
  8
1
  6
CONTINUOUS
 62
     2
 10
129.90490581955129
 20
83.211844307862236
 30
0.0
 11
87.836357353010158
 21
125.2803927744023
 31
0.0
  0
LINE
  5
2B50
  8
1
 62
     2
 10
136.3438825424067
 20
172.37370440142649
 30
0.0
 11
135.18437322034751
 21
170.36537534377001
 31
0.0
  0
LINE
  5
2B51
  8
1
 62
     2
 10
136.3438825424067
 20
172.37370440142649
 30
0.0
 11
134.3355534847507
 21
171.2141950793671
 31
0.0
  0
LINE
  5
2B52
  8
1
 62
     2
 10
88.543464134197279
 20
124.57328599321571
 30
0.0
 11
89.702973456256004
 21
126.5816150508722
 31
0.0
  0
LINE
  5
2B53
  8
1
 62
     2
 10
88.543464134197279
 20
124.57328599321571
 30
0.0
 11
90.551793191853335
 21
125.7327953152751
 31
0.0
  0
INSERT
  5
2B54
  8
0
  2
*U50
 10
0.0
 20
0.0
 30
0.0
  0
LINE
  5
2B55
  8
1
  6
CONTINUOUS
 62
     2
 10
108.79797275624389
 20
80.404946730780892
 30
0.0
 11
108.79797275624389
 21
132.40494673078081
 31
0.0
  0
LINE
  5
2B56
  8
1
  6
CONTINUOUS
 62
     2
 10
150.2122218048429
 20
80.404946730780892
 30
0.0
 11
107.79797275624389
 21
80.404946730780892
 31
0.0
  0
LINE
  5
2B57
  8
1
  6
CONTINUOUS
 62
     2
 10
150.2122218048429
 20
132.40494673078081
 30
0.0
 11
107.79797275624389
 21
132.40494673078081
 31
0.0
  0
LINE
  5
2B58
  8
1
 62
     2
 10
108.79797275624389
 20
132.40494673078081
 30
0.0
 11
109.3981789472892
 21
130.16494673078091
 31
0.0
  0
LINE
  5
2B59
  8
1
 62
     2
 10
108.79797275624389
 20
132.40494673078081
 30
0.0
 11
108.1977665651978
 21
130.16494673078091
 31
0.0
  0
LINE
  5
2B5A
  8
1
 62
     2
 10
108.79797275624389
 20
80.404946730780892
 30
0.0
 11
108.1977665651978
 21
82.644946730780902
 31
0.0
  0
LINE
  5
2B5B
  8
1
 62
     2
 10
108.79797275624389
 20
80.404946730780892
 30
0.0
 11
109.3981789472892
 21
82.644946730780902
 31
0.0
  0
INSERT
  5
2B5C
  8
0
  2
*U51
 10
0.0
 20
0.0
 30
0.0
  0
LINE
  5
2B5D
  8
1
  6
CONTINUOUS
 62
     2
 10
100.79797275624389
 20
70.404946730780964
 30
0.0
 11
100.79797275624389
 21
142.40494673078101
 31
0.0
  0
LINE
  5
2B5E
  8
1
  6
CONTINUOUS
 62
     2
 10
153.5122218048426
 20
70.404946730780964
 30
0.0
 11
99.797972756243894
 21
70.404946730780964
 31
0.0
  0
LINE
  5
2B5F
  8
1
  6
CONTINUOUS
 62
     2
 10
153.5122218048426
 20
142.40494673078101
 30
0.0
 11
99.797972756243894
 21
142.40494673078101
 31
0.0
  0
LINE
  5
2B60
  8
1
 62
     2
 10
100.79797275624389
 20
142.40494673078101
 30
0.0
 11
101.3981789472892
 21
140.16494673078091
 31
0.0
  0
LINE
  5
2B61
  8
1
 62
     2
 10
100.79797275624389
 20
142.40494673078101
 30
0.0
 11
100.1977665651978
 21
140.16494673078091
 31
0.0
  0
LINE
  5
2B62
  8
1
 62
     2
 10
100.79797275624389
 20
70.404946730780964
 30
0.0
 11
100.1977665651978
 21
72.644946730780987
 31
0.0
  0
LINE
  5
2B63
  8
1
 62
     2
 10
100.79797275624389
 20
70.404946730780964
 30
0.0
 11
101.3981789472892
 21
72.644946730780987
 31
0.0
  0
INSERT
  5
2B64
  8
0
  2
*U52
 10
0.0
 20
0.0
 30
0.0
  0
LINE
  5
2B65
  8
1
  6
CONTINUOUS
 62
     2
 10
72.291305249784145
 20
151.10283334410391
 30
0.0
 11
75.291305249784159
 21
151.10283334410391
 31
0.0
  0
LINE
  5
2B66
  8
1
  6
CONTINUOUS
 62
     2
 10
72.291305249784145
 20
151.10283334410391
 30
0.0
 11
65.575441606210575
 21
151.10283334410391
 31
0.0
  0
LINE
  5
2B67
  8
1
  6
CONTINUOUS
 62
     2
 10
72.291305249784145
 20
142.40494673078101
 30
0.0
 11
72.291305249784145
 21
152.10283334410391
 31
0.0
  0
LINE
  5
2B68
  8
1
  6
CONTINUOUS
 62
     2
 10
75.291305249784159
 20
142.40494673078101
 30
0.0
 11
75.291305249784159
 21
152.10283334410391
 31
0.0
  0
CIRCLE
  5
2B69
  8
1
 62
     2
 10
75.291305249784159
 20
151.10283334410391
 30
0.0
 40
0.8
  0
INSERT
  5
2B6A
  8
1
  6
CONTINUOUS
 62
     2
  2
*U53
 10
0.0
 20
0.0
 30
0.0
1001
ACAD
1002
{
1000
R14_HATCH_DATA
1000
2B6A
1011
1.0
1021
0.0
1031
0.0
1021
0.0
1031
0.0
1011
0.0
1021
0.0
1031
0.0
1021
1.0
1031
0.0
1011
0.0
1021
0.0
1031
0.0
1021
0.0
1031
1.0
1040
0.0
1010
0.0
1020
0.0
1030
1.0
1000
SOLID
1070
     1
1070
     1
1071
        1
1071
        1
1071
        1
1070
     2
1040
75.291305249784159
1040
151.10283334410391
1040
0.8000000000000003
1040
-3.1415926535897931
1040
3.1415926535897931
1070
     1
1071
        0
1070
     0
1070
     1
1071
        1
1040
-1904.404171088657
1040
-77.058022116770019
1040
0.0
1002
}
  0
LINE
  5
2B6B
  8
1
 62
     2
 10
72.291305249784145
 20
151.10283334410391
 30
0.0
 11
70.05130524978415
 21
150.50262715305831
 31
0.0
  0
LINE
  5
2B6C
  8
1
 62
     2
 10
72.291305249784145
 20
151.10283334410391
 30
0.0
 11
70.05130524978415
 21
151.70303953514971
 31
0.0
  0
INSERT
  5
2B6D
  8
0
  2
*U54
 10
0.0
 20
0.0
 30
0.0
  0
LINE
  5
2B6E
  8
1
 62
     2
 10
182.91785504897271
 20
122.8049467307809
 30
0.0
 11
195.18999914923131
 21
129.8902724305986
 31
0.0
  0
LINE
  5
2B6F
  8
1
 62
     2
 10
170.91222180484269
 20
134.81057997491061
 30
0.0
 11
177.99754750466019
 21
147.08272407516949
 31
0.0
  0
ARC
  5
2B70
  8
1
 62
     2
 10
154.51222180484669
 20
106.4049467307848
 30
0.0
 40
45.970651399630917
 50
32.79211284568251
 51
57.207887154309958
  0
INSERT
  5
2B71
  8
1
 62
     2
  2
_OPEN30
 10
194.32397374544681
 20
129.39027243059871
 30
0.0
 41
2.2399999999999989
 42
2.2399999999999989
 43
2.2399999999999989
 50
301.39605642284198
  0
INSERT
  5
2B72
  8
1
 62
     2
  2
_OPEN30
 10
177.49754750466019
 20
146.2166986713849
 30
0.0
 41
2.2400000000000002
 42
2.2400000000000002
 43
2.2400000000000002
 50
148.60394357715839
  0
INSERT
  5
2B73
  8
0
  2
*U55
 10
0.0
 20
0.0
 30
0.0
  0
LINE
  5
2B74
  8
1
 62
     2
 10
174.47959667632799
 20
80.382957169228504
 30
0.0
 11
185.1986270479141
 21
66.413644816722638
 31
0.0
  0
LINE
  5
2B75
  8
1
 62
     2
 10
180.53421136639449
 20
86.437571859295005
 30
0.0
 11
194.50352371890071
 21
75.718541487709047
 31
0.0
  0
ARC
  5
2B76
  8
1
 62
     2
 10
154.5122218048385
 20
106.4049467307844
 30
0.0
 40
49.407932863031867
 50
310.09783263219742
 51
319.90216736780161
  0
INSERT
  5
2B77
  8
1
 62
     2
  2
_OPEN30
 10
184.58986561890549
 20
67.206998157013857
 30
0.0
 41
2.2400000000000002
 42
2.2400000000000002
 43
2.2400000000000002
 50
218.7989163161017
  0
INSERT
  5
2B78
  8
1
 62
     2
  2
_OPEN30
 10
193.7101703786096
 20
76.327302916717755
 30
0.0
 41
2.2400000000000002
 42
2.2400000000000002
 43
2.2400000000000002
 50
51.201083683899178
  0
INSERT
  5
2B79
  8
0
  2
*U56
 10
0.0
 20
0.0
 30
0.0
  0
VIEWPORT
  5
95A
 67
     1
  8
0
  6
CONTINUOUS
 10
128.5
 20
97.5
 30
0.0
 40
386.73855140186919
 41
222.18000000000001
 68
     1
 69
     1
1001
ACAD
1000
MVIEW
1002
{
1070
    16
1010
0.0
1020
0.0
1030
0.0
1010
0.0
1020
0.0
1030
1.0
1040
0.0
1040
222.18000000000001
1040
128.5
1040
97.5
1040
50.0
1040
0.0
1040
0.0
1070
     0
1070
   100
1070
     1
1070
     1
1070
     0
1070
     0
1070
     0
1070
     0
1040
0.0
1040
0.0
1040
0.0
1040
10.0
1040
10.0
1040
10.0
1040
10.0
1070
     0
1002
{
1002
}
1002
}
1001
GENIUS_GENODEF_13
1002
{
1000
HIER
1070
     0
1002
}
1002
{
1000
MANEDIT
1070
     0
1002
}
1002
{
1000
NOSEL
1070
     0
1002
}
1002
{
1000
BEHIND
1070
     0
1002
}
1002
{
1000
OTHER
1070
     0
1002
}
1002
{
1000
REACTOR
1002
}
1001
GENIUS_GENOBJ-N-SDF_13
1002
{
1000
OWNER
1000
GEN
1002
}
1001
GENIUS_GENSCREG_15
1000
PF
1040
1.0
1000
DF
1040
1.0
1000
MIN
1011
-64.869275700934566
1021
0.0
1031
0.0
1021
-13.59
1031
0.0
1000
MAX
1011
321.86927570093462
1021
0.0
1031
0.0
1021
208.59
1031
0.0
1000
FLAGS
1070
     4
  0
ENDSEC
  0
EOF
